0
SECTION
2
ENTITIES
0
CIRCLE
100
AcDbEntity
8
0
100
AcDbCircle
10
930
20
52
30
0
40
4
210
0
220
0
230
1
0
LINE
8
0
100
AcDbLine
10
 920
20
  52
30
0.0
11
 940
21
  52
31
0.0
210
0
220
0
230
1
0
LINE
8
0
100
AcDbLine
10
 930
20
  42
30
0.0
11
 930
21
  62
31
0.0
210
0
220
0
230
1
0
CIRCLE
100
AcDbEntity
8
0
100
AcDbCircle
10
966
20
114
30
0
40
4
210
0
220
0
230
1
0
LINE
8
0
100
AcDbLine
10
 956
20
 114
30
0.0
11
 976
21
 114
31
0.0
210
0
220
0
230
1
0
LINE
8
0
100
AcDbLine
10
 966
20
 104
30
0.0
11
 966
21
 124
31
0.0
210
0
220
0
230
1
0
CIRCLE
100
AcDbEntity
8
0
100
AcDbCircle
10
999
20
52
30
0
40
4
210
0
220
0
230
1
0
LINE
8
0
100
AcDbLine
10
 989
20
  52
30
0.0
11
1009
21
  52
31
0.0
210
0
220
0
230
1
0
LINE
8
0
100
AcDbLine
10
 999
20
  42
30
0.0
11
 999
21
  62
31
0.0
210
0
220
0
230
1
0
CIRCLE
100
AcDbEntity
8
0
100
AcDbCircle
10
1032
20
114
30
0
40
4
210
0
220
0
230
1
0
LINE
8
0
100
AcDbLine
10
1022
20
 114
30
0.0
11
1042
21
 114
31
0.0
210
0
220
0
230
1
0
LINE
8
0
100
AcDbLine
10
1032
20
 104
30
0.0
11
1032
21
 124
31
0.0
210
0
220
0
230
1
0
CIRCLE
100
AcDbEntity
8
0
100
AcDbCircle
10
1064
20
52
30
0
40
4
210
0
220
0
230
1
0
LINE
8
0
100
AcDbLine
10
1054
20
  52
30
0.0
11
1074
21
  52
31
0.0
210
0
220
0
230
1
0
LINE
8
0
100
AcDbLine
10
1064
20
  42
30
0.0
11
1064
21
  62
31
0.0
210
0
220
0
230
1
0
CIRCLE
100
AcDbEntity
8
0
100
AcDbCircle
10
1096
20
114
30
0
40
4
210
0
220
0
230
1
0
LINE
8
0
100
AcDbLine
10
1086
20
 114
30
0.0
11
1106
21
 114
31
0.0
210
0
220
0
230
1
0
LINE
8
0
100
AcDbLine
10
1096
20
 104
30
0.0
11
1096
21
 124
31
0.0
210
0
220
0
230
1
0
CIRCLE
100
AcDbEntity
8
0
100
AcDbCircle
10
1128
20
52
30
0
40
4
210
0
220
0
230
1
0
LINE
8
0
100
AcDbLine
10
1118
20
  52
30
0.0
11
1138
21
  52
31
0.0
210
0
220
0
230
1
0
LINE
8
0
100
AcDbLine
10
1128
20
  42
30
0.0
11
1128
21
  62
31
0.0
210
0
220
0
230
1
0
CIRCLE
100
AcDbEntity
8
0
100
AcDbCircle
10
1159
20
114
30
0
40
4
210
0
220
0
230
1
0
LINE
8
0
100
AcDbLine
10
1149
20
 114
30
0.0
11
1169
21
 114
31
0.0
210
0
220
0
230
1
0
LINE
8
0
100
AcDbLine
10
1159
20
 104
30
0.0
11
1159
21
 124
31
0.0
210
0
220
0
230
1
0
CIRCLE
100
AcDbEntity
8
0
100
AcDbCircle
10
1189
20
52
30
0
40
4
210
0
220
0
230
1
0
LINE
8
0
100
AcDbLine
10
1179
20
  52
30
0.0
11
1199
21
  52
31
0.0
210
0
220
0
230
1
0
LINE
8
0
100
AcDbLine
10
1189
20
  42
30
0.0
11
1189
21
  62
31
0.0
210
0
220
0
230
1
0
CIRCLE
100
AcDbEntity
8
0
100
AcDbCircle
10
1219
20
114
30
0
40
4
210
0
220
0
230
1
0
LINE
8
0
100
AcDbLine
10
1209
20
 114
30
0.0
11
1229
21
 114
31
0.0
210
0
220
0
230
1
0
LINE
8
0
100
AcDbLine
10
1219
20
 104
30
0.0
11
1219
21
 124
31
0.0
210
0
220
0
230
1
0
CIRCLE
100
AcDbEntity
8
0
100
AcDbCircle
10
1248
20
52
30
0
40
4
210
0
220
0
230
1
0
LINE
8
0
100
AcDbLine
10
1238
20
  52
30
0.0
11
1258
21
  52
31
0.0
210
0
220
0
230
1
0
LINE
8
0
100
AcDbLine
10
1248
20
  42
30
0.0
11
1248
21
  62
31
0.0
210
0
220
0
230
1
0
CIRCLE
100
AcDbEntity
8
0
100
AcDbCircle
10
1277
20
114
30
0
40
4
210
0
220
0
230
1
0
LINE
8
0
100
AcDbLine
10
1267
20
 114
30
0.0
11
1287
21
 114
31
0.0
210
0
220
0
230
1
0
LINE
8
0
100
AcDbLine
10
1277
20
 104
30
0.0
11
1277
21
 124
31
0.0
210
0
220
0
230
1
0
CIRCLE
100
AcDbEntity
8
0
100
AcDbCircle
10
1304
20
52
30
0
40
4
210
0
220
0
230
1
0
LINE
8
0
100
AcDbLine
10
1294
20
  52
30
0.0
11
1314
21
  52
31
0.0
210
0
220
0
230
1
0
LINE
8
0
100
AcDbLine
10
1304
20
  42
30
0.0
11
1304
21
  62
31
0.0
210
0
220
0
230
1
0
CIRCLE
100
AcDbEntity
8
0
100
AcDbCircle
10
1331
20
114
30
0
40
4
210
0
220
0
230
1
0
LINE
8
0
100
AcDbLine
10
1321
20
 114
30
0.0
11
1341
21
 114
31
0.0
210
0
220
0
230
1
0
LINE
8
0
100
AcDbLine
10
1331
20
 104
30
0.0
11
1331
21
 124
31
0.0
210
0
220
0
230
1
0
CIRCLE
100
AcDbEntity
8
0
100
AcDbCircle
10
1357
20
52
30
0
40
4
210
0
220
0
230
1
0
LINE
8
0
100
AcDbLine
10
1347
20
  52
30
0.0
11
1367
21
  52
31
0.0
210
0
220
0
230
1
0
LINE
8
0
100
AcDbLine
10
1357
20
  42
30
0.0
11
1357
21
  62
31
0.0
210
0
220
0
230
1
0
CIRCLE
100
AcDbEntity
8
0
100
AcDbCircle
10
1383
20
114
30
0
40
4
210
0
220
0
230
1
0
LINE
8
0
100
AcDbLine
10
1373
20
 114
30
0.0
11
1393
21
 114
31
0.0
210
0
220
0
230
1
0
LINE
8
0
100
AcDbLine
10
1383
20
 104
30
0.0
11
1383
21
 124
31
0.0
210
0
220
0
230
1
0
CIRCLE
100
AcDbEntity
8
0
100
AcDbCircle
10
1409
20
52
30
0
40
4
210
0
220
0
230
1
0
LINE
8
0
100
AcDbLine
10
1399
20
  52
30
0.0
11
1419
21
  52
31
0.0
210
0
220
0
230
1
0
LINE
8
0
100
AcDbLine
10
1409
20
  42
30
0.0
11
1409
21
  62
31
0.0
210
0
220
0
230
1
0
CIRCLE
100
AcDbEntity
8
0
100
AcDbCircle
10
1435
20
114
30
0
40
3
210
0
220
0
230
1
0
LINE
8
0
100
AcDbLine
10
1425
20
 114
30
0.0
11
1445
21
 114
31
0.0
210
0
220
0
230
1
0
LINE
8
0
100
AcDbLine
10
1435
20
 104
30
0.0
11
1435
21
 124
31
0.0
210
0
220
0
230
1
0
CIRCLE
100
AcDbEntity
8
0
100
AcDbCircle
10
1461
20
52
30
0
40
3
210
0
220
0
230
1
0
LINE
8
0
100
AcDbLine
10
1451
20
  52
30
0.0
11
1471
21
  52
31
0.0
210
0
220
0
230
1
0
LINE
8
0
100
AcDbLine
10
1461
20
  42
30
0.0
11
1461
21
  62
31
0.0
210
0
220
0
230
1
0
CIRCLE
100
AcDbEntity
8
0
100
AcDbCircle
10
1484
20
114
30
0
40
3
210
0
220
0
230
1
0
LINE
8
0
100
AcDbLine
10
1474
20
 114
30
0.0
11
1494
21
 114
31
0.0
210
0
220
0
230
1
0
LINE
8
0
100
AcDbLine
10
1484
20
 104
30
0.0
11
1484
21
 124
31
0.0
210
0
220
0
230
1
0
CIRCLE
100
AcDbEntity
8
0
100
AcDbCircle
10
1507
20
52
30
0
40
3
210
0
220
0
230
1
0
LINE
8
0
100
AcDbLine
10
1497
20
  52
30
0.0
11
1517
21
  52
31
0.0
210
0
220
0
230
1
0
LINE
8
0
100
AcDbLine
10
1507
20
  42
30
0.0
11
1507
21
  62
31
0.0
210
0
220
0
230
1
0
CIRCLE
100
AcDbEntity
8
0
100
AcDbCircle
10
1530
20
114
30
0
40
3
210
0
220
0
230
1
0
LINE
8
0
100
AcDbLine
10
1520
20
 114
30
0.0
11
1540
21
 114
31
0.0
210
0
220
0
230
1
0
LINE
8
0
100
AcDbLine
10
1530
20
 104
30
0.0
11
1530
21
 124
31
0.0
210
0
220
0
230
1
0
CIRCLE
100
AcDbEntity
8
0
100
AcDbCircle
10
1552
20
52
30
0
40
4
210
0
220
0
230
1
0
LINE
8
0
100
AcDbLine
10
1542
20
  52
30
0.0
11
1562
21
  52
31
0.0
210
0
220
0
230
1
0
LINE
8
0
100
AcDbLine
10
1552
20
  42
30
0.0
11
1552
21
  62
31
0.0
210
0
220
0
230
1
0
CIRCLE
100
AcDbEntity
8
0
100
AcDbCircle
10
1573
20
114
30
0
40
4
210
0
220
0
230
1
0
LINE
8
0
100
AcDbLine
10
1563
20
 114
30
0.0
11
1583
21
 114
31
0.0
210
0
220
0
230
1
0
LINE
8
0
100
AcDbLine
10
1573
20
 104
30
0.0
11
1573
21
 124
31
0.0
210
0
220
0
230
1
0
CIRCLE
100
AcDbEntity
8
0
100
AcDbCircle
10
1594
20
52
30
0
40
4
210
0
220
0
230
1
0
LINE
8
0
100
AcDbLine
10
1584
20
  52
30
0.0
11
1604
21
  52
31
0.0
210
0
220
0
230
1
0
LINE
8
0
100
AcDbLine
10
1594
20
  42
30
0.0
11
1594
21
  62
31
0.0
210
0
220
0
230
1
0
CIRCLE
100
AcDbEntity
8
0
100
AcDbCircle
10
1615
20
114
30
0
40
4
210
0
220
0
230
1
0
LINE
8
0
100
AcDbLine
10
1605
20
 114
30
0.0
11
1625
21
 114
31
0.0
210
0
220
0
230
1
0
LINE
8
0
100
AcDbLine
10
1615
20
 104
30
0.0
11
1615
21
 124
31
0.0
210
0
220
0
230
1
0
CIRCLE
100
AcDbEntity
8
0
100
AcDbCircle
10
1636
20
52
30
0
40
4
210
0
220
0
230
1
0
LINE
8
0
100
AcDbLine
10
1626
20
  52
30
0.0
11
1646
21
  52
31
0.0
210
0
220
0
230
1
0
LINE
8
0
100
AcDbLine
10
1636
20
  42
30
0.0
11
1636
21
  62
31
0.0
210
0
220
0
230
1
0
CIRCLE
100
AcDbEntity
8
0
100
AcDbCircle
10
1656
20
114
30
0
40
4
210
0
220
0
230
1
0
LINE
8
0
100
AcDbLine
10
1646
20
 114
30
0.0
11
1666
21
 114
31
0.0
210
0
220
0
230
1
0
LINE
8
0
100
AcDbLine
10
1656
20
 104
30
0.0
11
1656
21
 124
31
0.0
210
0
220
0
230
1
0
CIRCLE
100
AcDbEntity
8
0
100
AcDbCircle
10
1676
20
52
30
0
40
4
210
0
220
0
230
1
0
LINE
8
0
100
AcDbLine
10
1666
20
  52
30
0.0
11
1686
21
  52
31
0.0
210
0
220
0
230
1
0
LINE
8
0
100
AcDbLine
10
1676
20
  42
30
0.0
11
1676
21
  62
31
0.0
210
0
220
0
230
1
0
CIRCLE
100
AcDbEntity
8
0
100
AcDbCircle
10
1696
20
114
30
0
40
3
210
0
220
0
230
1
0
LINE
8
0
100
AcDbLine
10
1686
20
 114
30
0.0
11
1706
21
 114
31
0.0
210
0
220
0
230
1
0
LINE
8
0
100
AcDbLine
10
1696
20
 104
30
0.0
11
1696
21
 124
31
0.0
210
0
220
0
230
1
0
CIRCLE
100
AcDbEntity
8
0
100
AcDbCircle
10
347
20
249
30
0
40
6
210
0
220
0
230
1
0
LINE
8
0
100
AcDbLine
10
 337
20
 249
30
0.0
11
 357
21
 249
31
0.0
210
0
220
0
230
1
0
LINE
8
0
100
AcDbLine
10
 347
20
 239
30
0.0
11
 347
21
 259
31
0.0
210
0
220
0
230
1
0
CIRCLE
100
AcDbEntity
8
0
100
AcDbCircle
10
405
20
350
30
0
40
5
210
0
220
0
230
1
0
LINE
8
0
100
AcDbLine
10
 395
20
 350
30
0.0
11
 415
21
 350
31
0.0
210
0
220
0
230
1
0
LINE
8
0
100
AcDbLine
10
 405
20
 340
30
0.0
11
 405
21
 360
31
0.0
210
0
220
0
230
1
0
CIRCLE
100
AcDbEntity
8
0
100
AcDbCircle
10
460
20
249
30
0
40
5
210
0
220
0
230
1
0
LINE
8
0
100
AcDbLine
10
 450
20
 249
30
0.0
11
 470
21
 249
31
0.0
210
0
220
0
230
1
0
LINE
8
0
100
AcDbLine
10
 460
20
 239
30
0.0
11
 460
21
 259
31
0.0
210
0
220
0
230
1
0
CIRCLE
100
AcDbEntity
8
0
100
AcDbCircle
10
514
20
350
30
0
40
5
210
0
220
0
230
1
0
LINE
8
0
100
AcDbLine
10
 504
20
 350
30
0.0
11
 524
21
 350
31
0.0
210
0
220
0
230
1
0
LINE
8
0
100
AcDbLine
10
 514
20
 340
30
0.0
11
 514
21
 360
31
0.0
210
0
220
0
230
1
0
CIRCLE
100
AcDbEntity
8
0
100
AcDbCircle
10
565
20
249
30
0
40
5
210
0
220
0
230
1
0
LINE
8
0
100
AcDbLine
10
 555
20
 249
30
0.0
11
 575
21
 249
31
0.0
210
0
220
0
230
1
0
LINE
8
0
100
AcDbLine
10
 565
20
 239
30
0.0
11
 565
21
 259
31
0.0
210
0
220
0
230
1
0
CIRCLE
100
AcDbEntity
8
0
100
AcDbCircle
10
616
20
350
30
0
40
5
210
0
220
0
230
1
0
LINE
8
0
100
AcDbLine
10
 606
20
 350
30
0.0
11
 626
21
 350
31
0.0
210
0
220
0
230
1
0
LINE
8
0
100
AcDbLine
10
 616
20
 340
30
0.0
11
 616
21
 360
31
0.0
210
0
220
0
230
1
0
CIRCLE
100
AcDbEntity
8
0
100
AcDbCircle
10
665
20
249
30
0
40
4
210
0
220
0
230
1
0
LINE
8
0
100
AcDbLine
10
 655
20
 249
30
0.0
11
 675
21
 249
31
0.0
210
0
220
0
230
1
0
LINE
8
0
100
AcDbLine
10
 665
20
 239
30
0.0
11
 665
21
 259
31
0.0
210
0
220
0
230
1
0
CIRCLE
100
AcDbEntity
8
0
100
AcDbCircle
10
714
20
350
30
0
40
5
210
0
220
0
230
1
0
LINE
8
0
100
AcDbLine
10
 704
20
 350
30
0.0
11
 724
21
 350
31
0.0
210
0
220
0
230
1
0
LINE
8
0
100
AcDbLine
10
 714
20
 340
30
0.0
11
 714
21
 360
31
0.0
210
0
220
0
230
1
0
CIRCLE
100
AcDbEntity
8
0
100
AcDbCircle
10
761
20
249
30
0
40
6
210
0
220
0
230
1
0
LINE
8
0
100
AcDbLine
10
 751
20
 249
30
0.0
11
 771
21
 249
31
0.0
210
0
220
0
230
1
0
LINE
8
0
100
AcDbLine
10
 761
20
 239
30
0.0
11
 761
21
 259
31
0.0
210
0
220
0
230
1
0
CIRCLE
100
AcDbEntity
8
0
100
AcDbCircle
10
807
20
350
30
0
40
5
210
0
220
0
230
1
0
LINE
8
0
100
AcDbLine
10
 797
20
 350
30
0.0
11
 817
21
 350
31
0.0
210
0
220
0
230
1
0
LINE
8
0
100
AcDbLine
10
 807
20
 340
30
0.0
11
 807
21
 360
31
0.0
210
0
220
0
230
1
0
CIRCLE
100
AcDbEntity
8
0
100
AcDbCircle
10
852
20
249
30
0
40
4
210
0
220
0
230
1
0
LINE
8
0
100
AcDbLine
10
 842
20
 249
30
0.0
11
 862
21
 249
31
0.0
210
0
220
0
230
1
0
LINE
8
0
100
AcDbLine
10
 852
20
 239
30
0.0
11
 852
21
 259
31
0.0
210
0
220
0
230
1
0
CIRCLE
100
AcDbEntity
8
0
100
AcDbCircle
10
897
20
350
30
0
40
5
210
0
220
0
230
1
0
LINE
8
0
100
AcDbLine
10
 887
20
 350
30
0.0
11
 907
21
 350
31
0.0
210
0
220
0
230
1
0
LINE
8
0
100
AcDbLine
10
 897
20
 340
30
0.0
11
 897
21
 360
31
0.0
210
0
220
0
230
1
0
CIRCLE
100
AcDbEntity
8
0
100
AcDbCircle
10
930
20
249
30
0
40
4
210
0
220
0
230
1
0
LINE
8
0
100
AcDbLine
10
 920
20
 249
30
0.0
11
 940
21
 249
31
0.0
210
0
220
0
230
1
0
LINE
8
0
100
AcDbLine
10
 930
20
 239
30
0.0
11
 930
21
 259
31
0.0
210
0
220
0
230
1
0
CIRCLE
100
AcDbEntity
8
0
100
AcDbCircle
10
962
20
350
30
0
40
4
210
0
220
0
230
1
0
LINE
8
0
100
AcDbLine
10
 952
20
 350
30
0.0
11
 972
21
 350
31
0.0
210
0
220
0
230
1
0
LINE
8
0
100
AcDbLine
10
 962
20
 340
30
0.0
11
 962
21
 360
31
0.0
210
0
220
0
230
1
0
CIRCLE
100
AcDbEntity
8
0
100
AcDbCircle
10
992
20
249
30
0
40
4
210
0
220
0
230
1
0
LINE
8
0
100
AcDbLine
10
 982
20
 249
30
0.0
11
1002
21
 249
31
0.0
210
0
220
0
230
1
0
LINE
8
0
100
AcDbLine
10
 992
20
 239
30
0.0
11
 992
21
 259
31
0.0
210
0
220
0
230
1
0
CIRCLE
100
AcDbEntity
8
0
100
AcDbCircle
10
1022
20
350
30
0
40
4
210
0
220
0
230
1
0
LINE
8
0
100
AcDbLine
10
1012
20
 350
30
0.0
11
1032
21
 350
31
0.0
210
0
220
0
230
1
0
LINE
8
0
100
AcDbLine
10
1022
20
 340
30
0.0
11
1022
21
 360
31
0.0
210
0
220
0
230
1
0
CIRCLE
100
AcDbEntity
8
0
100
AcDbCircle
10
1050
20
249
30
0
40
4
210
0
220
0
230
1
0
LINE
8
0
100
AcDbLine
10
1040
20
 249
30
0.0
11
1060
21
 249
31
0.0
210
0
220
0
230
1
0
LINE
8
0
100
AcDbLine
10
1050
20
 239
30
0.0
11
1050
21
 259
31
0.0
210
0
220
0
230
1
0
CIRCLE
100
AcDbEntity
8
0
100
AcDbCircle
10
1078
20
350
30
0
40
4
210
0
220
0
230
1
0
LINE
8
0
100
AcDbLine
10
1068
20
 350
30
0.0
11
1088
21
 350
31
0.0
210
0
220
0
230
1
0
LINE
8
0
100
AcDbLine
10
1078
20
 340
30
0.0
11
1078
21
 360
31
0.0
210
0
220
0
230
1
0
CIRCLE
100
AcDbEntity
8
0
100
AcDbCircle
10
1105
20
249
30
0
40
4
210
0
220
0
230
1
0
LINE
8
0
100
AcDbLine
10
1095
20
 249
30
0.0
11
1115
21
 249
31
0.0
210
0
220
0
230
1
0
LINE
8
0
100
AcDbLine
10
1105
20
 239
30
0.0
11
1105
21
 259
31
0.0
210
0
220
0
230
1
0
CIRCLE
100
AcDbEntity
8
0
100
AcDbCircle
10
1132
20
350
30
0
40
4
210
0
220
0
230
1
0
LINE
8
0
100
AcDbLine
10
1122
20
 350
30
0.0
11
1142
21
 350
31
0.0
210
0
220
0
230
1
0
LINE
8
0
100
AcDbLine
10
1132
20
 340
30
0.0
11
1132
21
 360
31
0.0
210
0
220
0
230
1
0
CIRCLE
100
AcDbEntity
8
0
100
AcDbCircle
10
1158
20
249
30
0
40
3
210
0
220
0
230
1
0
LINE
8
0
100
AcDbLine
10
1148
20
 249
30
0.0
11
1168
21
 249
31
0.0
210
0
220
0
230
1
0
LINE
8
0
100
AcDbLine
10
1158
20
 239
30
0.0
11
1158
21
 259
31
0.0
210
0
220
0
230
1
0
CIRCLE
100
AcDbEntity
8
0
100
AcDbCircle
10
1183
20
350
30
0
40
3
210
0
220
0
230
1
0
LINE
8
0
100
AcDbLine
10
1173
20
 350
30
0.0
11
1193
21
 350
31
0.0
210
0
220
0
230
1
0
LINE
8
0
100
AcDbLine
10
1183
20
 340
30
0.0
11
1183
21
 360
31
0.0
210
0
220
0
230
1
0
CIRCLE
100
AcDbEntity
8
0
100
AcDbCircle
10
1207
20
249
30
0
40
3
210
0
220
0
230
1
0
LINE
8
0
100
AcDbLine
10
1197
20
 249
30
0.0
11
1217
21
 249
31
0.0
210
0
220
0
230
1
0
LINE
8
0
100
AcDbLine
10
1207
20
 239
30
0.0
11
1207
21
 259
31
0.0
210
0
220
0
230
1
0
CIRCLE
100
AcDbEntity
8
0
100
AcDbCircle
10
1231
20
350
30
0
40
3
210
0
220
0
230
1
0
LINE
8
0
100
AcDbLine
10
1221
20
 350
30
0.0
11
1241
21
 350
31
0.0
210
0
220
0
230
1
0
LINE
8
0
100
AcDbLine
10
1231
20
 340
30
0.0
11
1231
21
 360
31
0.0
210
0
220
0
230
1
0
CIRCLE
100
AcDbEntity
8
0
100
AcDbCircle
10
1254
20
249
30
0
40
3
210
0
220
0
230
1
0
LINE
8
0
100
AcDbLine
10
1244
20
 249
30
0.0
11
1264
21
 249
31
0.0
210
0
220
0
230
1
0
LINE
8
0
100
AcDbLine
10
1254
20
 239
30
0.0
11
1254
21
 259
31
0.0
210
0
220
0
230
1
0
CIRCLE
100
AcDbEntity
8
0
100
AcDbCircle
10
1277
20
350
30
0
40
3
210
0
220
0
230
1
0
LINE
8
0
100
AcDbLine
10
1267
20
 350
30
0.0
11
1287
21
 350
31
0.0
210
0
220
0
230
1
0
LINE
8
0
100
AcDbLine
10
1277
20
 340
30
0.0
11
1277
21
 360
31
0.0
210
0
220
0
230
1
0
CIRCLE
100
AcDbEntity
8
0
100
AcDbCircle
10
1299
20
249
30
0
40
3
210
0
220
0
230
1
0
LINE
8
0
100
AcDbLine
10
1289
20
 249
30
0.0
11
1309
21
 249
31
0.0
210
0
220
0
230
1
0
LINE
8
0
100
AcDbLine
10
1299
20
 239
30
0.0
11
1299
21
 259
31
0.0
210
0
220
0
230
1
0
CIRCLE
100
AcDbEntity
8
0
100
AcDbCircle
10
1321
20
350
30
0
40
3
210
0
220
0
230
1
0
LINE
8
0
100
AcDbLine
10
1311
20
 350
30
0.0
11
1331
21
 350
31
0.0
210
0
220
0
230
1
0
LINE
8
0
100
AcDbLine
10
1321
20
 340
30
0.0
11
1321
21
 360
31
0.0
210
0
220
0
230
1
0
CIRCLE
100
AcDbEntity
8
0
100
AcDbCircle
10
1341
20
249
30
0
40
3
210
0
220
0
230
1
0
LINE
8
0
100
AcDbLine
10
1331
20
 249
30
0.0
11
1351
21
 249
31
0.0
210
0
220
0
230
1
0
LINE
8
0
100
AcDbLine
10
1341
20
 239
30
0.0
11
1341
21
 259
31
0.0
210
0
220
0
230
1
0
CIRCLE
100
AcDbEntity
8
0
100
AcDbCircle
10
1361
20
350
30
0
40
3
210
0
220
0
230
1
0
LINE
8
0
100
AcDbLine
10
1351
20
 350
30
0.0
11
1371
21
 350
31
0.0
210
0
220
0
230
1
0
LINE
8
0
100
AcDbLine
10
1361
20
 340
30
0.0
11
1361
21
 360
31
0.0
210
0
220
0
230
1
0
CIRCLE
100
AcDbEntity
8
0
100
AcDbCircle
10
1382
20
249
30
0
40
3
210
0
220
0
230
1
0
LINE
8
0
100
AcDbLine
10
1372
20
 249
30
0.0
11
1392
21
 249
31
0.0
210
0
220
0
230
1
0
LINE
8
0
100
AcDbLine
10
1382
20
 239
30
0.0
11
1382
21
 259
31
0.0
210
0
220
0
230
1
0
CIRCLE
100
AcDbEntity
8
0
100
AcDbCircle
10
1402
20
350
30
0
40
3
210
0
220
0
230
1
0
LINE
8
0
100
AcDbLine
10
1392
20
 350
30
0.0
11
1412
21
 350
31
0.0
210
0
220
0
230
1
0
LINE
8
0
100
AcDbLine
10
1402
20
 340
30
0.0
11
1402
21
 360
31
0.0
210
0
220
0
230
1
0
CIRCLE
100
AcDbEntity
8
0
100
AcDbCircle
10
1422
20
249
30
0
40
3
210
0
220
0
230
1
0
LINE
8
0
100
AcDbLine
10
1412
20
 249
30
0.0
11
1432
21
 249
31
0.0
210
0
220
0
230
1
0
LINE
8
0
100
AcDbLine
10
1422
20
 239
30
0.0
11
1422
21
 259
31
0.0
210
0
220
0
230
1
0
CIRCLE
100
AcDbEntity
8
0
100
AcDbCircle
10
1442
20
350
30
0
40
3
210
0
220
0
230
1
0
LINE
8
0
100
AcDbLine
10
1432
20
 350
30
0.0
11
1452
21
 350
31
0.0
210
0
220
0
230
1
0
LINE
8
0
100
AcDbLine
10
1442
20
 340
30
0.0
11
1442
21
 360
31
0.0
210
0
220
0
230
1
0
CIRCLE
100
AcDbEntity
8
0
100
AcDbCircle
10
1462
20
249
30
0
40
3
210
0
220
0
230
1
0
LINE
8
0
100
AcDbLine
10
1452
20
 249
30
0.0
11
1472
21
 249
31
0.0
210
0
220
0
230
1
0
LINE
8
0
100
AcDbLine
10
1462
20
 239
30
0.0
11
1462
21
 259
31
0.0
210
0
220
0
230
1
0
CIRCLE
100
AcDbEntity
8
0
100
AcDbCircle
10
1482
20
350
30
0
40
3
210
0
220
0
230
1
0
LINE
8
0
100
AcDbLine
10
1472
20
 350
30
0.0
11
1492
21
 350
31
0.0
210
0
220
0
230
1
0
LINE
8
0
100
AcDbLine
10
1482
20
 340
30
0.0
11
1482
21
 360
31
0.0
210
0
220
0
230
1
0
CIRCLE
100
AcDbEntity
8
0
100
AcDbCircle
10
1502
20
249
30
0
40
3
210
0
220
0
230
1
0
LINE
8
0
100
AcDbLine
10
1492
20
 249
30
0.0
11
1512
21
 249
31
0.0
210
0
220
0
230
1
0
LINE
8
0
100
AcDbLine
10
1502
20
 239
30
0.0
11
1502
21
 259
31
0.0
210
0
220
0
230
1
0
CIRCLE
100
AcDbEntity
8
0
100
AcDbCircle
10
1522
20
350
30
0
40
3
210
0
220
0
230
1
0
LINE
8
0
100
AcDbLine
10
1512
20
 350
30
0.0
11
1532
21
 350
31
0.0
210
0
220
0
230
1
0
LINE
8
0
100
AcDbLine
10
1522
20
 340
30
0.0
11
1522
21
 360
31
0.0
210
0
220
0
230
1
0
CIRCLE
100
AcDbEntity
8
0
100
AcDbCircle
10
1542
20
249
30
0
40
3
210
0
220
0
230
1
0
LINE
8
0
100
AcDbLine
10
1532
20
 249
30
0.0
11
1552
21
 249
31
0.0
210
0
220
0
230
1
0
LINE
8
0
100
AcDbLine
10
1542
20
 239
30
0.0
11
1542
21
 259
31
0.0
210
0
220
0
230
1
0
CIRCLE
100
AcDbEntity
8
0
100
AcDbCircle
10
1562
20
350
30
0
40
2
210
0
220
0
230
1
0
LINE
8
0
100
AcDbLine
10
1552
20
 350
30
0.0
11
1572
21
 350
31
0.0
210
0
220
0
230
1
0
LINE
8
0
100
AcDbLine
10
1562
20
 340
30
0.0
11
1562
21
 360
31
0.0
210
0
220
0
230
1
0
CIRCLE
100
AcDbEntity
8
0
100
AcDbCircle
10
1582
20
249
30
0
40
2
210
0
220
0
230
1
0
LINE
8
0
100
AcDbLine
10
1572
20
 249
30
0.0
11
1592
21
 249
31
0.0
210
0
220
0
230
1
0
LINE
8
0
100
AcDbLine
10
1582
20
 239
30
0.0
11
1582
21
 259
31
0.0
210
0
220
0
230
1
0
CIRCLE
100
AcDbEntity
8
0
100
AcDbCircle
10
1602
20
350
30
0
40
2
210
0
220
0
230
1
0
LINE
8
0
100
AcDbLine
10
1592
20
 350
30
0.0
11
1612
21
 350
31
0.0
210
0
220
0
230
1
0
LINE
8
0
100
AcDbLine
10
1602
20
 340
30
0.0
11
1602
21
 360
31
0.0
210
0
220
0
230
1
0
CIRCLE
100
AcDbEntity
8
0
100
AcDbCircle
10
1622
20
249
30
0
40
2
210
0
220
0
230
1
0
LINE
8
0
100
AcDbLine
10
1612
20
 249
30
0.0
11
1632
21
 249
31
0.0
210
0
220
0
230
1
0
LINE
8
0
100
AcDbLine
10
1622
20
 239
30
0.0
11
1622
21
 259
31
0.0
210
0
220
0
230
1
0
CIRCLE
100
AcDbEntity
8
0
100
AcDbCircle
10
1642
20
350
30
0
40
2
210
0
220
0
230
1
0
LINE
8
0
100
AcDbLine
10
1632
20
 350
30
0.0
11
1652
21
 350
31
0.0
210
0
220
0
230
1
0
LINE
8
0
100
AcDbLine
10
1642
20
 340
30
0.0
11
1642
21
 360
31
0.0
210
0
220
0
230
1
0
CIRCLE
100
AcDbEntity
8
0
100
AcDbCircle
10
1662
20
249
30
0
40
3
210
0
220
0
230
1
0
LINE
8
0
100
AcDbLine
10
1652
20
 249
30
0.0
11
1672
21
 249
31
0.0
210
0
220
0
230
1
0
LINE
8
0
100
AcDbLine
10
1662
20
 239
30
0.0
11
1662
21
 259
31
0.0
210
0
220
0
230
1
0
CIRCLE
100
AcDbEntity
8
0
100
AcDbCircle
10
1682
20
350
30
0
40
2
210
0
220
0
230
1
0
LINE
8
0
100
AcDbLine
10
1672
20
 350
30
0.0
11
1692
21
 350
31
0.0
210
0
220
0
230
1
0
LINE
8
0
100
AcDbLine
10
1682
20
 340
30
0.0
11
1682
21
 360
31
0.0
210
0
220
0
230
1
0
CIRCLE
100
AcDbEntity
8
0
100
AcDbCircle
10
1702
20
249
30
0
40
2
210
0
220
0
230
1
0
LINE
8
0
100
AcDbLine
10
1692
20
 249
30
0.0
11
1712
21
 249
31
0.0
210
0
220
0
230
1
0
LINE
8
0
100
AcDbLine
10
1702
20
 239
30
0.0
11
1702
21
 259
31
0.0
210
0
220
0
230
1
0
CIRCLE
100
AcDbEntity
8
0
100
AcDbCircle
10
1722
20
350
30
0
40
2
210
0
220
0
230
1
0
LINE
8
0
100
AcDbLine
10
1712
20
 350
30
0.0
11
1732
21
 350
31
0.0
210
0
220
0
230
1
0
LINE
8
0
100
AcDbLine
10
1722
20
 340
30
0.0
11
1722
21
 360
31
0.0
210
0
220
0
230
1
0
CIRCLE
100
AcDbEntity
8
0
100
AcDbCircle
10
1742
20
249
30
0
40
2
210
0
220
0
230
1
0
LINE
8
0
100
AcDbLine
10
1732
20
 249
30
0.0
11
1752
21
 249
31
0.0
210
0
220
0
230
1
0
LINE
8
0
100
AcDbLine
10
1742
20
 239
30
0.0
11
1742
21
 259
31
0.0
210
0
220
0
230
1
0
CIRCLE
100
AcDbEntity
8
0
100
AcDbCircle
10
1762
20
350
30
0
40
2
210
0
220
0
230
1
0
LINE
8
0
100
AcDbLine
10
1752
20
 350
30
0.0
11
1772
21
 350
31
0.0
210
0
220
0
230
1
0
LINE
8
0
100
AcDbLine
10
1762
20
 340
30
0.0
11
1762
21
 360
31
0.0
210
0
220
0
230
1
0
CIRCLE
100
AcDbEntity
8
0
100
AcDbCircle
10
1782
20
249
30
0
40
2
210
0
220
0
230
1
0
LINE
8
0
100
AcDbLine
10
1772
20
 249
30
0.0
11
1792
21
 249
31
0.0
210
0
220
0
230
1
0
LINE
8
0
100
AcDbLine
10
1782
20
 239
30
0.0
11
1782
21
 259
31
0.0
210
0
220
0
230
1
0
CIRCLE
100
AcDbEntity
8
0
100
AcDbCircle
10
1802
20
350
30
0
40
2
210
0
220
0
230
1
0
LINE
8
0
100
AcDbLine
10
1792
20
 350
30
0.0
11
1812
21
 350
31
0.0
210
0
220
0
230
1
0
LINE
8
0
100
AcDbLine
10
1802
20
 340
30
0.0
11
1802
21
 360
31
0.0
210
0
220
0
230
1
0
CIRCLE
100
AcDbEntity
8
0
100
AcDbCircle
10
1822
20
249
30
0
40
2
210
0
220
0
230
1
0
LINE
8
0
100
AcDbLine
10
1812
20
 249
30
0.0
11
1832
21
 249
31
0.0
210
0
220
0
230
1
0
LINE
8
0
100
AcDbLine
10
1822
20
 239
30
0.0
11
1822
21
 259
31
0.0
210
0
220
0
230
1
0
CIRCLE
100
AcDbEntity
8
0
100
AcDbCircle
10
1842
20
350
30
0
40
2
210
0
220
0
230
1
0
LINE
8
0
100
AcDbLine
10
1832
20
 350
30
0.0
11
1852
21
 350
31
0.0
210
0
220
0
230
1
0
LINE
8
0
100
AcDbLine
10
1842
20
 340
30
0.0
11
1842
21
 360
31
0.0
210
0
220
0
230
1
0
CIRCLE
100
AcDbEntity
8
0
100
AcDbCircle
10
335
20
457
30
0
40
4
210
0
220
0
230
1
0
LINE
8
0
100
AcDbLine
10
 325
20
 457
30
0.0
11
 345
21
 457
31
0.0
210
0
220
0
230
1
0
LINE
8
0
100
AcDbLine
10
 335
20
 447
30
0.0
11
 335
21
 467
31
0.0
210
0
220
0
230
1
0
CIRCLE
100
AcDbEntity
8
0
100
AcDbCircle
10
378
20
533
30
0
40
4
210
0
220
0
230
1
0
LINE
8
0
100
AcDbLine
10
 368
20
 533
30
0.0
11
 388
21
 533
31
0.0
210
0
220
0
230
1
0
LINE
8
0
100
AcDbLine
10
 378
20
 523
30
0.0
11
 378
21
 543
31
0.0
210
0
220
0
230
1
0
CIRCLE
100
AcDbEntity
8
0
100
AcDbCircle
10
420
20
457
30
0
40
4
210
0
220
0
230
1
0
LINE
8
0
100
AcDbLine
10
 410
20
 457
30
0.0
11
 430
21
 457
31
0.0
210
0
220
0
230
1
0
LINE
8
0
100
AcDbLine
10
 420
20
 447
30
0.0
11
 420
21
 467
31
0.0
210
0
220
0
230
1
0
CIRCLE
100
AcDbEntity
8
0
100
AcDbCircle
10
462
20
533
30
0
40
4
210
0
220
0
230
1
0
LINE
8
0
100
AcDbLine
10
 452
20
 533
30
0.0
11
 472
21
 533
31
0.0
210
0
220
0
230
1
0
LINE
8
0
100
AcDbLine
10
 462
20
 523
30
0.0
11
 462
21
 543
31
0.0
210
0
220
0
230
1
0
CIRCLE
100
AcDbEntity
8
0
100
AcDbCircle
10
502
20
457
30
0
40
4
210
0
220
0
230
1
0
LINE
8
0
100
AcDbLine
10
 492
20
 457
30
0.0
11
 512
21
 457
31
0.0
210
0
220
0
230
1
0
LINE
8
0
100
AcDbLine
10
 502
20
 447
30
0.0
11
 502
21
 467
31
0.0
210
0
220
0
230
1
0
CIRCLE
100
AcDbEntity
8
0
100
AcDbCircle
10
541
20
533
30
0
40
4
210
0
220
0
230
1
0
LINE
8
0
100
AcDbLine
10
 531
20
 533
30
0.0
11
 551
21
 533
31
0.0
210
0
220
0
230
1
0
LINE
8
0
100
AcDbLine
10
 541
20
 523
30
0.0
11
 541
21
 543
31
0.0
210
0
220
0
230
1
0
CIRCLE
100
AcDbEntity
8
0
100
AcDbCircle
10
579
20
457
30
0
40
4
210
0
220
0
230
1
0
LINE
8
0
100
AcDbLine
10
 569
20
 457
30
0.0
11
 589
21
 457
31
0.0
210
0
220
0
230
1
0
LINE
8
0
100
AcDbLine
10
 579
20
 447
30
0.0
11
 579
21
 467
31
0.0
210
0
220
0
230
1
0
CIRCLE
100
AcDbEntity
8
0
100
AcDbCircle
10
617
20
533
30
0
40
4
210
0
220
0
230
1
0
LINE
8
0
100
AcDbLine
10
 607
20
 533
30
0.0
11
 627
21
 533
31
0.0
210
0
220
0
230
1
0
LINE
8
0
100
AcDbLine
10
 617
20
 523
30
0.0
11
 617
21
 543
31
0.0
210
0
220
0
230
1
0
CIRCLE
100
AcDbEntity
8
0
100
AcDbCircle
10
654
20
457
30
0
40
4
210
0
220
0
230
1
0
LINE
8
0
100
AcDbLine
10
 644
20
 457
30
0.0
11
 664
21
 457
31
0.0
210
0
220
0
230
1
0
LINE
8
0
100
AcDbLine
10
 654
20
 447
30
0.0
11
 654
21
 467
31
0.0
210
0
220
0
230
1
0
CIRCLE
100
AcDbEntity
8
0
100
AcDbCircle
10
690
20
533
30
0
40
4
210
0
220
0
230
1
0
LINE
8
0
100
AcDbLine
10
 680
20
 533
30
0.0
11
 700
21
 533
31
0.0
210
0
220
0
230
1
0
LINE
8
0
100
AcDbLine
10
 690
20
 523
30
0.0
11
 690
21
 543
31
0.0
210
0
220
0
230
1
0
CIRCLE
100
AcDbEntity
8
0
100
AcDbCircle
10
725
20
457
30
0
40
4
210
0
220
0
230
1
0
LINE
8
0
100
AcDbLine
10
 715
20
 457
30
0.0
11
 735
21
 457
31
0.0
210
0
220
0
230
1
0
LINE
8
0
100
AcDbLine
10
 725
20
 447
30
0.0
11
 725
21
 467
31
0.0
210
0
220
0
230
1
0
CIRCLE
100
AcDbEntity
8
0
100
AcDbCircle
10
760
20
533
30
0
40
4
210
0
220
0
230
1
0
LINE
8
0
100
AcDbLine
10
 750
20
 533
30
0.0
11
 770
21
 533
31
0.0
210
0
220
0
230
1
0
LINE
8
0
100
AcDbLine
10
 760
20
 523
30
0.0
11
 760
21
 543
31
0.0
210
0
220
0
230
1
0
CIRCLE
100
AcDbEntity
8
0
100
AcDbCircle
10
794
20
457
30
0
40
4
210
0
220
0
230
1
0
LINE
8
0
100
AcDbLine
10
 784
20
 457
30
0.0
11
 804
21
 457
31
0.0
210
0
220
0
230
1
0
LINE
8
0
100
AcDbLine
10
 794
20
 447
30
0.0
11
 794
21
 467
31
0.0
210
0
220
0
230
1
0
CIRCLE
100
AcDbEntity
8
0
100
AcDbCircle
10
828
20
533
30
0
40
3
210
0
220
0
230
1
0
LINE
8
0
100
AcDbLine
10
 818
20
 533
30
0.0
11
 838
21
 533
31
0.0
210
0
220
0
230
1
0
LINE
8
0
100
AcDbLine
10
 828
20
 523
30
0.0
11
 828
21
 543
31
0.0
210
0
220
0
230
1
0
CIRCLE
100
AcDbEntity
8
0
100
AcDbCircle
10
860
20
457
30
0
40
3
210
0
220
0
230
1
0
LINE
8
0
100
AcDbLine
10
 850
20
 457
30
0.0
11
 870
21
 457
31
0.0
210
0
220
0
230
1
0
LINE
8
0
100
AcDbLine
10
 860
20
 447
30
0.0
11
 860
21
 467
31
0.0
210
0
220
0
230
1
0
CIRCLE
100
AcDbEntity
8
0
100
AcDbCircle
10
892
20
533
30
0
40
3
210
0
220
0
230
1
0
LINE
8
0
100
AcDbLine
10
 882
20
 533
30
0.0
11
 902
21
 533
31
0.0
210
0
220
0
230
1
0
LINE
8
0
100
AcDbLine
10
 892
20
 523
30
0.0
11
 892
21
 543
31
0.0
210
0
220
0
230
1
0
CIRCLE
100
AcDbEntity
8
0
100
AcDbCircle
10
923
20
457
30
0
40
3
210
0
220
0
230
1
0
LINE
8
0
100
AcDbLine
10
 913
20
 457
30
0.0
11
 933
21
 457
31
0.0
210
0
220
0
230
1
0
LINE
8
0
100
AcDbLine
10
 923
20
 447
30
0.0
11
 923
21
 467
31
0.0
210
0
220
0
230
1
0
CIRCLE
100
AcDbEntity
8
0
100
AcDbCircle
10
954
20
533
30
0
40
3
210
0
220
0
230
1
0
LINE
8
0
100
AcDbLine
10
 944
20
 533
30
0.0
11
 964
21
 533
31
0.0
210
0
220
0
230
1
0
LINE
8
0
100
AcDbLine
10
 954
20
 523
30
0.0
11
 954
21
 543
31
0.0
210
0
220
0
230
1
0
CIRCLE
100
AcDbEntity
8
0
100
AcDbCircle
10
984
20
457
30
0
40
3
210
0
220
0
230
1
0
LINE
8
0
100
AcDbLine
10
 974
20
 457
30
0.0
11
 994
21
 457
31
0.0
210
0
220
0
230
1
0
LINE
8
0
100
AcDbLine
10
 984
20
 447
30
0.0
11
 984
21
 467
31
0.0
210
0
220
0
230
1
0
CIRCLE
100
AcDbEntity
8
0
100
AcDbCircle
10
1014
20
533
30
0
40
3
210
0
220
0
230
1
0
LINE
8
0
100
AcDbLine
10
1004
20
 533
30
0.0
11
1024
21
 533
31
0.0
210
0
220
0
230
1
0
LINE
8
0
100
AcDbLine
10
1014
20
 523
30
0.0
11
1014
21
 543
31
0.0
210
0
220
0
230
1
0
CIRCLE
100
AcDbEntity
8
0
100
AcDbCircle
10
1043
20
457
30
0
40
3
210
0
220
0
230
1
0
LINE
8
0
100
AcDbLine
10
1033
20
 457
30
0.0
11
1053
21
 457
31
0.0
210
0
220
0
230
1
0
LINE
8
0
100
AcDbLine
10
1043
20
 447
30
0.0
11
1043
21
 467
31
0.0
210
0
220
0
230
1
0
CIRCLE
100
AcDbEntity
8
0
100
AcDbCircle
10
1072
20
533
30
0
40
3
210
0
220
0
230
1
0
LINE
8
0
100
AcDbLine
10
1062
20
 533
30
0.0
11
1082
21
 533
31
0.0
210
0
220
0
230
1
0
LINE
8
0
100
AcDbLine
10
1072
20
 523
30
0.0
11
1072
21
 543
31
0.0
210
0
220
0
230
1
0
CIRCLE
100
AcDbEntity
8
0
100
AcDbCircle
10
1100
20
457
30
0
40
3
210
0
220
0
230
1
0
LINE
8
0
100
AcDbLine
10
1090
20
 457
30
0.0
11
1110
21
 457
31
0.0
210
0
220
0
230
1
0
LINE
8
0
100
AcDbLine
10
1100
20
 447
30
0.0
11
1100
21
 467
31
0.0
210
0
220
0
230
1
0
CIRCLE
100
AcDbEntity
8
0
100
AcDbCircle
10
1128
20
533
30
0
40
3
210
0
220
0
230
1
0
LINE
8
0
100
AcDbLine
10
1118
20
 533
30
0.0
11
1138
21
 533
31
0.0
210
0
220
0
230
1
0
LINE
8
0
100
AcDbLine
10
1128
20
 523
30
0.0
11
1128
21
 543
31
0.0
210
0
220
0
230
1
0
CIRCLE
100
AcDbEntity
8
0
100
AcDbCircle
10
1155
20
457
30
0
40
3
210
0
220
0
230
1
0
LINE
8
0
100
AcDbLine
10
1145
20
 457
30
0.0
11
1165
21
 457
31
0.0
210
0
220
0
230
1
0
LINE
8
0
100
AcDbLine
10
1155
20
 447
30
0.0
11
1155
21
 467
31
0.0
210
0
220
0
230
1
0
CIRCLE
100
AcDbEntity
8
0
100
AcDbCircle
10
1182
20
533
30
0
40
3
210
0
220
0
230
1
0
LINE
8
0
100
AcDbLine
10
1172
20
 533
30
0.0
11
1192
21
 533
31
0.0
210
0
220
0
230
1
0
LINE
8
0
100
AcDbLine
10
1182
20
 523
30
0.0
11
1182
21
 543
31
0.0
210
0
220
0
230
1
0
CIRCLE
100
AcDbEntity
8
0
100
AcDbCircle
10
1208
20
457
30
0
40
3
210
0
220
0
230
1
0
LINE
8
0
100
AcDbLine
10
1198
20
 457
30
0.0
11
1218
21
 457
31
0.0
210
0
220
0
230
1
0
LINE
8
0
100
AcDbLine
10
1208
20
 447
30
0.0
11
1208
21
 467
31
0.0
210
0
220
0
230
1
0
CIRCLE
100
AcDbEntity
8
0
100
AcDbCircle
10
1234
20
533
30
0
40
3
210
0
220
0
230
1
0
LINE
8
0
100
AcDbLine
10
1224
20
 533
30
0.0
11
1244
21
 533
31
0.0
210
0
220
0
230
1
0
LINE
8
0
100
AcDbLine
10
1234
20
 523
30
0.0
11
1234
21
 543
31
0.0
210
0
220
0
230
1
0
CIRCLE
100
AcDbEntity
8
0
100
AcDbCircle
10
1258
20
457
30
0
40
3
210
0
220
0
230
1
0
LINE
8
0
100
AcDbLine
10
1248
20
 457
30
0.0
11
1268
21
 457
31
0.0
210
0
220
0
230
1
0
LINE
8
0
100
AcDbLine
10
1258
20
 447
30
0.0
11
1258
21
 467
31
0.0
210
0
220
0
230
1
0
CIRCLE
100
AcDbEntity
8
0
100
AcDbCircle
10
1282
20
533
30
0
40
3
210
0
220
0
230
1
0
LINE
8
0
100
AcDbLine
10
1272
20
 533
30
0.0
11
1292
21
 533
31
0.0
210
0
220
0
230
1
0
LINE
8
0
100
AcDbLine
10
1282
20
 523
30
0.0
11
1282
21
 543
31
0.0
210
0
220
0
230
1
0
CIRCLE
100
AcDbEntity
8
0
100
AcDbCircle
10
1304
20
457
30
0
40
3
210
0
220
0
230
1
0
LINE
8
0
100
AcDbLine
10
1294
20
 457
30
0.0
11
1314
21
 457
31
0.0
210
0
220
0
230
1
0
LINE
8
0
100
AcDbLine
10
1304
20
 447
30
0.0
11
1304
21
 467
31
0.0
210
0
220
0
230
1
0
CIRCLE
100
AcDbEntity
8
0
100
AcDbCircle
10
1326
20
533
30
0
40
3
210
0
220
0
230
1
0
LINE
8
0
100
AcDbLine
10
1316
20
 533
30
0.0
11
1336
21
 533
31
0.0
210
0
220
0
230
1
0
LINE
8
0
100
AcDbLine
10
1326
20
 523
30
0.0
11
1326
21
 543
31
0.0
210
0
220
0
230
1
0
CIRCLE
100
AcDbEntity
8
0
100
AcDbCircle
10
1347
20
457
30
0
40
3
210
0
220
0
230
1
0
LINE
8
0
100
AcDbLine
10
1337
20
 457
30
0.0
11
1357
21
 457
31
0.0
210
0
220
0
230
1
0
LINE
8
0
100
AcDbLine
10
1347
20
 447
30
0.0
11
1347
21
 467
31
0.0
210
0
220
0
230
1
0
CIRCLE
100
AcDbEntity
8
0
100
AcDbCircle
10
1368
20
533
30
0
40
3
210
0
220
0
230
1
0
LINE
8
0
100
AcDbLine
10
1358
20
 533
30
0.0
11
1378
21
 533
31
0.0
210
0
220
0
230
1
0
LINE
8
0
100
AcDbLine
10
1368
20
 523
30
0.0
11
1368
21
 543
31
0.0
210
0
220
0
230
1
0
CIRCLE
100
AcDbEntity
8
0
100
AcDbCircle
10
1388
20
457
30
0
40
3
210
0
220
0
230
1
0
LINE
8
0
100
AcDbLine
10
1378
20
 457
30
0.0
11
1398
21
 457
31
0.0
210
0
220
0
230
1
0
LINE
8
0
100
AcDbLine
10
1388
20
 447
30
0.0
11
1388
21
 467
31
0.0
210
0
220
0
230
1
0
CIRCLE
100
AcDbEntity
8
0
100
AcDbCircle
10
1408
20
533
30
0
40
2
210
0
220
0
230
1
0
LINE
8
0
100
AcDbLine
10
1398
20
 533
30
0.0
11
1418
21
 533
31
0.0
210
0
220
0
230
1
0
LINE
8
0
100
AcDbLine
10
1408
20
 523
30
0.0
11
1408
21
 543
31
0.0
210
0
220
0
230
1
0
CIRCLE
100
AcDbEntity
8
0
100
AcDbCircle
10
1428
20
457
30
0
40
2
210
0
220
0
230
1
0
LINE
8
0
100
AcDbLine
10
1418
20
 457
30
0.0
11
1438
21
 457
31
0.0
210
0
220
0
230
1
0
LINE
8
0
100
AcDbLine
10
1428
20
 447
30
0.0
11
1428
21
 467
31
0.0
210
0
220
0
230
1
0
CIRCLE
100
AcDbEntity
8
0
100
AcDbCircle
10
1448
20
533
30
0
40
2
210
0
220
0
230
1
0
LINE
8
0
100
AcDbLine
10
1438
20
 533
30
0.0
11
1458
21
 533
31
0.0
210
0
220
0
230
1
0
LINE
8
0
100
AcDbLine
10
1448
20
 523
30
0.0
11
1448
21
 543
31
0.0
210
0
220
0
230
1
0
CIRCLE
100
AcDbEntity
8
0
100
AcDbCircle
10
1468
20
457
30
0
40
2
210
0
220
0
230
1
0
LINE
8
0
100
AcDbLine
10
1458
20
 457
30
0.0
11
1478
21
 457
31
0.0
210
0
220
0
230
1
0
LINE
8
0
100
AcDbLine
10
1468
20
 447
30
0.0
11
1468
21
 467
31
0.0
210
0
220
0
230
1
0
CIRCLE
100
AcDbEntity
8
0
100
AcDbCircle
10
1488
20
533
30
0
40
2
210
0
220
0
230
1
0
LINE
8
0
100
AcDbLine
10
1478
20
 533
30
0.0
11
1498
21
 533
31
0.0
210
0
220
0
230
1
0
LINE
8
0
100
AcDbLine
10
1488
20
 523
30
0.0
11
1488
21
 543
31
0.0
210
0
220
0
230
1
0
CIRCLE
100
AcDbEntity
8
0
100
AcDbCircle
10
1508
20
457
30
0
40
2
210
0
220
0
230
1
0
LINE
8
0
100
AcDbLine
10
1498
20
 457
30
0.0
11
1518
21
 457
31
0.0
210
0
220
0
230
1
0
LINE
8
0
100
AcDbLine
10
1508
20
 447
30
0.0
11
1508
21
 467
31
0.0
210
0
220
0
230
1
0
CIRCLE
100
AcDbEntity
8
0
100
AcDbCircle
10
1528
20
533
30
0
40
2
210
0
220
0
230
1
0
LINE
8
0
100
AcDbLine
10
1518
20
 533
30
0.0
11
1538
21
 533
31
0.0
210
0
220
0
230
1
0
LINE
8
0
100
AcDbLine
10
1528
20
 523
30
0.0
11
1528
21
 543
31
0.0
210
0
220
0
230
1
0
CIRCLE
100
AcDbEntity
8
0
100
AcDbCircle
10
1548
20
457
30
0
40
2
210
0
220
0
230
1
0
LINE
8
0
100
AcDbLine
10
1538
20
 457
30
0.0
11
1558
21
 457
31
0.0
210
0
220
0
230
1
0
LINE
8
0
100
AcDbLine
10
1548
20
 447
30
0.0
11
1548
21
 467
31
0.0
210
0
220
0
230
1
0
CIRCLE
100
AcDbEntity
8
0
100
AcDbCircle
10
1568
20
533
30
0
40
2
210
0
220
0
230
1
0
LINE
8
0
100
AcDbLine
10
1558
20
 533
30
0.0
11
1578
21
 533
31
0.0
210
0
220
0
230
1
0
LINE
8
0
100
AcDbLine
10
1568
20
 523
30
0.0
11
1568
21
 543
31
0.0
210
0
220
0
230
1
0
CIRCLE
100
AcDbEntity
8
0
100
AcDbCircle
10
1588
20
457
30
0
40
2
210
0
220
0
230
1
0
LINE
8
0
100
AcDbLine
10
1578
20
 457
30
0.0
11
1598
21
 457
31
0.0
210
0
220
0
230
1
0
LINE
8
0
100
AcDbLine
10
1588
20
 447
30
0.0
11
1588
21
 467
31
0.0
210
0
220
0
230
1
0
CIRCLE
100
AcDbEntity
8
0
100
AcDbCircle
10
1608
20
533
30
0
40
2
210
0
220
0
230
1
0
LINE
8
0
100
AcDbLine
10
1598
20
 533
30
0.0
11
1618
21
 533
31
0.0
210
0
220
0
230
1
0
LINE
8
0
100
AcDbLine
10
1608
20
 523
30
0.0
11
1608
21
 543
31
0.0
210
0
220
0
230
1
0
CIRCLE
100
AcDbEntity
8
0
100
AcDbCircle
10
1628
20
457
30
0
40
2
210
0
220
0
230
1
0
LINE
8
0
100
AcDbLine
10
1618
20
 457
30
0.0
11
1638
21
 457
31
0.0
210
0
220
0
230
1
0
LINE
8
0
100
AcDbLine
10
1628
20
 447
30
0.0
11
1628
21
 467
31
0.0
210
0
220
0
230
1
0
CIRCLE
100
AcDbEntity
8
0
100
AcDbCircle
10
1648
20
533
30
0
40
2
210
0
220
0
230
1
0
LINE
8
0
100
AcDbLine
10
1638
20
 533
30
0.0
11
1658
21
 533
31
0.0
210
0
220
0
230
1
0
LINE
8
0
100
AcDbLine
10
1648
20
 523
30
0.0
11
1648
21
 543
31
0.0
210
0
220
0
230
1
0
CIRCLE
100
AcDbEntity
8
0
100
AcDbCircle
10
1668
20
457
30
0
40
2
210
0
220
0
230
1
0
LINE
8
0
100
AcDbLine
10
1658
20
 457
30
0.0
11
1678
21
 457
31
0.0
210
0
220
0
230
1
0
LINE
8
0
100
AcDbLine
10
1668
20
 447
30
0.0
11
1668
21
 467
31
0.0
210
0
220
0
230
1
0
CIRCLE
100
AcDbEntity
8
0
100
AcDbCircle
10
1688
20
533
30
0
40
2
210
0
220
0
230
1
0
LINE
8
0
100
AcDbLine
10
1678
20
 533
30
0.0
11
1698
21
 533
31
0.0
210
0
220
0
230
1
0
LINE
8
0
100
AcDbLine
10
1688
20
 523
30
0.0
11
1688
21
 543
31
0.0
210
0
220
0
230
1
0
CIRCLE
100
AcDbEntity
8
0
100
AcDbCircle
10
1708
20
457
30
0
40
2
210
0
220
0
230
1
0
LINE
8
0
100
AcDbLine
10
1698
20
 457
30
0.0
11
1718
21
 457
31
0.0
210
0
220
0
230
1
0
LINE
8
0
100
AcDbLine
10
1708
20
 447
30
0.0
11
1708
21
 467
31
0.0
210
0
220
0
230
1
0
CIRCLE
100
AcDbEntity
8
0
100
AcDbCircle
10
1728
20
533
30
0
40
2
210
0
220
0
230
1
0
LINE
8
0
100
AcDbLine
10
1718
20
 533
30
0.0
11
1738
21
 533
31
0.0
210
0
220
0
230
1
0
LINE
8
0
100
AcDbLine
10
1728
20
 523
30
0.0
11
1728
21
 543
31
0.0
210
0
220
0
230
1
0
CIRCLE
100
AcDbEntity
8
0
100
AcDbCircle
10
1748
20
457
30
0
40
2
210
0
220
0
230
1
0
LINE
8
0
100
AcDbLine
10
1738
20
 457
30
0.0
11
1758
21
 457
31
0.0
210
0
220
0
230
1
0
LINE
8
0
100
AcDbLine
10
1748
20
 447
30
0.0
11
1748
21
 467
31
0.0
210
0
220
0
230
1
0
CIRCLE
100
AcDbEntity
8
0
100
AcDbCircle
10
1768
20
533
30
0
40
2
210
0
220
0
230
1
0
LINE
8
0
100
AcDbLine
10
1758
20
 533
30
0.0
11
1778
21
 533
31
0.0
210
0
220
0
230
1
0
LINE
8
0
100
AcDbLine
10
1768
20
 523
30
0.0
11
1768
21
 543
31
0.0
210
0
220
0
230
1
0
CIRCLE
100
AcDbEntity
8
0
100
AcDbCircle
10
333
20
635
30
0
40
5
210
0
220
0
230
1
0
LINE
8
0
100
AcDbLine
10
 323
20
 635
30
0.0
11
 343
21
 635
31
0.0
210
0
220
0
230
1
0
LINE
8
0
100
AcDbLine
10
 333
20
 625
30
0.0
11
 333
21
 645
31
0.0
210
0
220
0
230
1
0
CIRCLE
100
AcDbEntity
8
0
100
AcDbCircle
10
333
20
704
30
0
40
5
210
0
220
0
230
1
0
LINE
8
0
100
AcDbLine
10
 323
20
 704
30
0.0
11
 343
21
 704
31
0.0
210
0
220
0
230
1
0
LINE
8
0
100
AcDbLine
10
 333
20
 694
30
0.0
11
 333
21
 714
31
0.0
210
0
220
0
230
1
0
CIRCLE
100
AcDbEntity
8
0
100
AcDbCircle
10
412
20
635
30
0
40
5
210
0
220
0
230
1
0
LINE
8
0
100
AcDbLine
10
 402
20
 635
30
0.0
11
 422
21
 635
31
0.0
210
0
220
0
230
1
0
LINE
8
0
100
AcDbLine
10
 412
20
 625
30
0.0
11
 412
21
 645
31
0.0
210
0
220
0
230
1
0
CIRCLE
100
AcDbEntity
8
0
100
AcDbCircle
10
412
20
704
30
0
40
5
210
0
220
0
230
1
0
LINE
8
0
100
AcDbLine
10
 402
20
 704
30
0.0
11
 422
21
 704
31
0.0
210
0
220
0
230
1
0
LINE
8
0
100
AcDbLine
10
 412
20
 694
30
0.0
11
 412
21
 714
31
0.0
210
0
220
0
230
1
0
CIRCLE
100
AcDbEntity
8
0
100
AcDbCircle
10
484
20
635
30
0
40
5
210
0
220
0
230
1
0
LINE
8
0
100
AcDbLine
10
 474
20
 635
30
0.0
11
 494
21
 635
31
0.0
210
0
220
0
230
1
0
LINE
8
0
100
AcDbLine
10
 484
20
 625
30
0.0
11
 484
21
 645
31
0.0
210
0
220
0
230
1
0
CIRCLE
100
AcDbEntity
8
0
100
AcDbCircle
10
484
20
704
30
0
40
5
210
0
220
0
230
1
0
LINE
8
0
100
AcDbLine
10
 474
20
 704
30
0.0
11
 494
21
 704
31
0.0
210
0
220
0
230
1
0
LINE
8
0
100
AcDbLine
10
 484
20
 694
30
0.0
11
 484
21
 714
31
0.0
210
0
220
0
230
1
0
CIRCLE
100
AcDbEntity
8
0
100
AcDbCircle
10
550
20
635
30
0
40
5
210
0
220
0
230
1
0
LINE
8
0
100
AcDbLine
10
 540
20
 635
30
0.0
11
 560
21
 635
31
0.0
210
0
220
0
230
1
0
LINE
8
0
100
AcDbLine
10
 550
20
 625
30
0.0
11
 550
21
 645
31
0.0
210
0
220
0
230
1
0
CIRCLE
100
AcDbEntity
8
0
100
AcDbCircle
10
550
20
704
30
0
40
5
210
0
220
0
230
1
0
LINE
8
0
100
AcDbLine
10
 540
20
 704
30
0.0
11
 560
21
 704
31
0.0
210
0
220
0
230
1
0
LINE
8
0
100
AcDbLine
10
 550
20
 694
30
0.0
11
 550
21
 714
31
0.0
210
0
220
0
230
1
0
CIRCLE
100
AcDbEntity
8
0
100
AcDbCircle
10
613
20
635
30
0
40
5
210
0
220
0
230
1
0
LINE
8
0
100
AcDbLine
10
 603
20
 635
30
0.0
11
 623
21
 635
31
0.0
210
0
220
0
230
1
0
LINE
8
0
100
AcDbLine
10
 613
20
 625
30
0.0
11
 613
21
 645
31
0.0
210
0
220
0
230
1
0
CIRCLE
100
AcDbEntity
8
0
100
AcDbCircle
10
613
20
704
30
0
40
5
210
0
220
0
230
1
0
LINE
8
0
100
AcDbLine
10
 603
20
 704
30
0.0
11
 623
21
 704
31
0.0
210
0
220
0
230
1
0
LINE
8
0
100
AcDbLine
10
 613
20
 694
30
0.0
11
 613
21
 714
31
0.0
210
0
220
0
230
1
0
CIRCLE
100
AcDbEntity
8
0
100
AcDbCircle
10
673
20
635
30
0
40
5
210
0
220
0
230
1
0
LINE
8
0
100
AcDbLine
10
 663
20
 635
30
0.0
11
 683
21
 635
31
0.0
210
0
220
0
230
1
0
LINE
8
0
100
AcDbLine
10
 673
20
 625
30
0.0
11
 673
21
 645
31
0.0
210
0
220
0
230
1
0
CIRCLE
100
AcDbEntity
8
0
100
AcDbCircle
10
673
20
704
30
0
40
4
210
0
220
0
230
1
0
LINE
8
0
100
AcDbLine
10
 663
20
 704
30
0.0
11
 683
21
 704
31
0.0
210
0
220
0
230
1
0
LINE
8
0
100
AcDbLine
10
 673
20
 694
30
0.0
11
 673
21
 714
31
0.0
210
0
220
0
230
1
0
CIRCLE
100
AcDbEntity
8
0
100
AcDbCircle
10
729
20
635
30
0
40
4
210
0
220
0
230
1
0
LINE
8
0
100
AcDbLine
10
 719
20
 635
30
0.0
11
 739
21
 635
31
0.0
210
0
220
0
230
1
0
LINE
8
0
100
AcDbLine
10
 729
20
 625
30
0.0
11
 729
21
 645
31
0.0
210
0
220
0
230
1
0
CIRCLE
100
AcDbEntity
8
0
100
AcDbCircle
10
729
20
704
30
0
40
4
210
0
220
0
230
1
0
LINE
8
0
100
AcDbLine
10
 719
20
 704
30
0.0
11
 739
21
 704
31
0.0
210
0
220
0
230
1
0
LINE
8
0
100
AcDbLine
10
 729
20
 694
30
0.0
11
 729
21
 714
31
0.0
210
0
220
0
230
1
0
CIRCLE
100
AcDbEntity
8
0
100
AcDbCircle
10
782
20
635
30
0
40
4
210
0
220
0
230
1
0
LINE
8
0
100
AcDbLine
10
 772
20
 635
30
0.0
11
 792
21
 635
31
0.0
210
0
220
0
230
1
0
LINE
8
0
100
AcDbLine
10
 782
20
 625
30
0.0
11
 782
21
 645
31
0.0
210
0
220
0
230
1
0
CIRCLE
100
AcDbEntity
8
0
100
AcDbCircle
10
782
20
704
30
0
40
4
210
0
220
0
230
1
0
LINE
8
0
100
AcDbLine
10
 772
20
 704
30
0.0
11
 792
21
 704
31
0.0
210
0
220
0
230
1
0
LINE
8
0
100
AcDbLine
10
 782
20
 694
30
0.0
11
 782
21
 714
31
0.0
210
0
220
0
230
1
0
CIRCLE
100
AcDbEntity
8
0
100
AcDbCircle
10
833
20
635
30
0
40
4
210
0
220
0
230
1
0
LINE
8
0
100
AcDbLine
10
 823
20
 635
30
0.0
11
 843
21
 635
31
0.0
210
0
220
0
230
1
0
LINE
8
0
100
AcDbLine
10
 833
20
 625
30
0.0
11
 833
21
 645
31
0.0
210
0
220
0
230
1
0
CIRCLE
100
AcDbEntity
8
0
100
AcDbCircle
10
833
20
704
30
0
40
4
210
0
220
0
230
1
0
LINE
8
0
100
AcDbLine
10
 823
20
 704
30
0.0
11
 843
21
 704
31
0.0
210
0
220
0
230
1
0
LINE
8
0
100
AcDbLine
10
 833
20
 694
30
0.0
11
 833
21
 714
31
0.0
210
0
220
0
230
1
0
CIRCLE
100
AcDbEntity
8
0
100
AcDbCircle
10
882
20
635
30
0
40
4
210
0
220
0
230
1
0
LINE
8
0
100
AcDbLine
10
 872
20
 635
30
0.0
11
 892
21
 635
31
0.0
210
0
220
0
230
1
0
LINE
8
0
100
AcDbLine
10
 882
20
 625
30
0.0
11
 882
21
 645
31
0.0
210
0
220
0
230
1
0
CIRCLE
100
AcDbEntity
8
0
100
AcDbCircle
10
882
20
704
30
0
40
4
210
0
220
0
230
1
0
LINE
8
0
100
AcDbLine
10
 872
20
 704
30
0.0
11
 892
21
 704
31
0.0
210
0
220
0
230
1
0
LINE
8
0
100
AcDbLine
10
 882
20
 694
30
0.0
11
 882
21
 714
31
0.0
210
0
220
0
230
1
0
CIRCLE
100
AcDbEntity
8
0
100
AcDbCircle
10
929
20
635
30
0
40
4
210
0
220
0
230
1
0
LINE
8
0
100
AcDbLine
10
 919
20
 635
30
0.0
11
 939
21
 635
31
0.0
210
0
220
0
230
1
0
LINE
8
0
100
AcDbLine
10
 929
20
 625
30
0.0
11
 929
21
 645
31
0.0
210
0
220
0
230
1
0
CIRCLE
100
AcDbEntity
8
0
100
AcDbCircle
10
929
20
704
30
0
40
4
210
0
220
0
230
1
0
LINE
8
0
100
AcDbLine
10
 919
20
 704
30
0.0
11
 939
21
 704
31
0.0
210
0
220
0
230
1
0
LINE
8
0
100
AcDbLine
10
 929
20
 694
30
0.0
11
 929
21
 714
31
0.0
210
0
220
0
230
1
0
CIRCLE
100
AcDbEntity
8
0
100
AcDbCircle
10
973
20
635
30
0
40
4
210
0
220
0
230
1
0
LINE
8
0
100
AcDbLine
10
 963
20
 635
30
0.0
11
 983
21
 635
31
0.0
210
0
220
0
230
1
0
LINE
8
0
100
AcDbLine
10
 973
20
 625
30
0.0
11
 973
21
 645
31
0.0
210
0
220
0
230
1
0
CIRCLE
100
AcDbEntity
8
0
100
AcDbCircle
10
973
20
704
30
0
40
4
210
0
220
0
230
1
0
LINE
8
0
100
AcDbLine
10
 963
20
 704
30
0.0
11
 983
21
 704
31
0.0
210
0
220
0
230
1
0
LINE
8
0
100
AcDbLine
10
 973
20
 694
30
0.0
11
 973
21
 714
31
0.0
210
0
220
0
230
1
0
CIRCLE
100
AcDbEntity
8
0
100
AcDbCircle
10
1016
20
635
30
0
40
3
210
0
220
0
230
1
0
LINE
8
0
100
AcDbLine
10
1006
20
 635
30
0.0
11
1026
21
 635
31
0.0
210
0
220
0
230
1
0
LINE
8
0
100
AcDbLine
10
1016
20
 625
30
0.0
11
1016
21
 645
31
0.0
210
0
220
0
230
1
0
CIRCLE
100
AcDbEntity
8
0
100
AcDbCircle
10
1016
20
704
30
0
40
3
210
0
220
0
230
1
0
LINE
8
0
100
AcDbLine
10
1006
20
 704
30
0.0
11
1026
21
 704
31
0.0
210
0
220
0
230
1
0
LINE
8
0
100
AcDbLine
10
1016
20
 694
30
0.0
11
1016
21
 714
31
0.0
210
0
220
0
230
1
0
CIRCLE
100
AcDbEntity
8
0
100
AcDbCircle
10
1056
20
635
30
0
40
3
210
0
220
0
230
1
0
LINE
8
0
100
AcDbLine
10
1046
20
 635
30
0.0
11
1066
21
 635
31
0.0
210
0
220
0
230
1
0
LINE
8
0
100
AcDbLine
10
1056
20
 625
30
0.0
11
1056
21
 645
31
0.0
210
0
220
0
230
1
0
CIRCLE
100
AcDbEntity
8
0
100
AcDbCircle
10
1056
20
704
30
0
40
3
210
0
220
0
230
1
0
LINE
8
0
100
AcDbLine
10
1046
20
 704
30
0.0
11
1066
21
 704
31
0.0
210
0
220
0
230
1
0
LINE
8
0
100
AcDbLine
10
1056
20
 694
30
0.0
11
1056
21
 714
31
0.0
210
0
220
0
230
1
0
CIRCLE
100
AcDbEntity
8
0
100
AcDbCircle
10
1095
20
635
30
0
40
3
210
0
220
0
230
1
0
LINE
8
0
100
AcDbLine
10
1085
20
 635
30
0.0
11
1105
21
 635
31
0.0
210
0
220
0
230
1
0
LINE
8
0
100
AcDbLine
10
1095
20
 625
30
0.0
11
1095
21
 645
31
0.0
210
0
220
0
230
1
0
CIRCLE
100
AcDbEntity
8
0
100
AcDbCircle
10
1095
20
704
30
0
40
3
210
0
220
0
230
1
0
LINE
8
0
100
AcDbLine
10
1085
20
 704
30
0.0
11
1105
21
 704
31
0.0
210
0
220
0
230
1
0
LINE
8
0
100
AcDbLine
10
1095
20
 694
30
0.0
11
1095
21
 714
31
0.0
210
0
220
0
230
1
0
CIRCLE
100
AcDbEntity
8
0
100
AcDbCircle
10
1132
20
635
30
0
40
3
210
0
220
0
230
1
0
LINE
8
0
100
AcDbLine
10
1122
20
 635
30
0.0
11
1142
21
 635
31
0.0
210
0
220
0
230
1
0
LINE
8
0
100
AcDbLine
10
1132
20
 625
30
0.0
11
1132
21
 645
31
0.0
210
0
220
0
230
1
0
CIRCLE
100
AcDbEntity
8
0
100
AcDbCircle
10
1132
20
704
30
0
40
2
210
0
220
0
230
1
0
LINE
8
0
100
AcDbLine
10
1122
20
 704
30
0.0
11
1142
21
 704
31
0.0
210
0
220
0
230
1
0
LINE
8
0
100
AcDbLine
10
1132
20
 694
30
0.0
11
1132
21
 714
31
0.0
210
0
220
0
230
1
0
CIRCLE
100
AcDbEntity
8
0
100
AcDbCircle
10
1166
20
635
30
0
40
2
210
0
220
0
230
1
0
LINE
8
0
100
AcDbLine
10
1156
20
 635
30
0.0
11
1176
21
 635
31
0.0
210
0
220
0
230
1
0
LINE
8
0
100
AcDbLine
10
1166
20
 625
30
0.0
11
1166
21
 645
31
0.0
210
0
220
0
230
1
0
CIRCLE
100
AcDbEntity
8
0
100
AcDbCircle
10
1166
20
704
30
0
40
2
210
0
220
0
230
1
0
LINE
8
0
100
AcDbLine
10
1156
20
 704
30
0.0
11
1176
21
 704
31
0.0
210
0
220
0
230
1
0
LINE
8
0
100
AcDbLine
10
1166
20
 694
30
0.0
11
1166
21
 714
31
0.0
210
0
220
0
230
1
0
CIRCLE
100
AcDbEntity
8
0
100
AcDbCircle
10
1206
20
635
30
0
40
2
210
0
220
0
230
1
0
LINE
8
0
100
AcDbLine
10
1196
20
 635
30
0.0
11
1216
21
 635
31
0.0
210
0
220
0
230
1
0
LINE
8
0
100
AcDbLine
10
1206
20
 625
30
0.0
11
1206
21
 645
31
0.0
210
0
220
0
230
1
0
CIRCLE
100
AcDbEntity
8
0
100
AcDbCircle
10
1206
20
704
30
0
40
2
210
0
220
0
230
1
0
LINE
8
0
100
AcDbLine
10
1196
20
 704
30
0.0
11
1216
21
 704
31
0.0
210
0
220
0
230
1
0
LINE
8
0
100
AcDbLine
10
1206
20
 694
30
0.0
11
1206
21
 714
31
0.0
210
0
220
0
230
1
0
CIRCLE
100
AcDbEntity
8
0
100
AcDbCircle
10
1244
20
635
30
0
40
2
210
0
220
0
230
1
0
LINE
8
0
100
AcDbLine
10
1234
20
 635
30
0.0
11
1254
21
 635
31
0.0
210
0
220
0
230
1
0
LINE
8
0
100
AcDbLine
10
1244
20
 625
30
0.0
11
1244
21
 645
31
0.0
210
0
220
0
230
1
0
CIRCLE
100
AcDbEntity
8
0
100
AcDbCircle
10
1244
20
704
30
0
40
2
210
0
220
0
230
1
0
LINE
8
0
100
AcDbLine
10
1234
20
 704
30
0.0
11
1254
21
 704
31
0.0
210
0
220
0
230
1
0
LINE
8
0
100
AcDbLine
10
1244
20
 694
30
0.0
11
1244
21
 714
31
0.0
210
0
220
0
230
1
0
CIRCLE
100
AcDbEntity
8
0
100
AcDbCircle
10
1280
20
635
30
0
40
2
210
0
220
0
230
1
0
LINE
8
0
100
AcDbLine
10
1270
20
 635
30
0.0
11
1290
21
 635
31
0.0
210
0
220
0
230
1
0
LINE
8
0
100
AcDbLine
10
1280
20
 625
30
0.0
11
1280
21
 645
31
0.0
210
0
220
0
230
1
0
CIRCLE
100
AcDbEntity
8
0
100
AcDbCircle
10
1280
20
704
30
0
40
2
210
0
220
0
230
1
0
LINE
8
0
100
AcDbLine
10
1270
20
 704
30
0.0
11
1290
21
 704
31
0.0
210
0
220
0
230
1
0
LINE
8
0
100
AcDbLine
10
1280
20
 694
30
0.0
11
1280
21
 714
31
0.0
210
0
220
0
230
1
0
CIRCLE
100
AcDbEntity
8
0
100
AcDbCircle
10
1314
20
635
30
0
40
2
210
0
220
0
230
1
0
LINE
8
0
100
AcDbLine
10
1304
20
 635
30
0.0
11
1324
21
 635
31
0.0
210
0
220
0
230
1
0
LINE
8
0
100
AcDbLine
10
1314
20
 625
30
0.0
11
1314
21
 645
31
0.0
210
0
220
0
230
1
0
CIRCLE
100
AcDbEntity
8
0
100
AcDbCircle
10
1314
20
704
30
0
40
2
210
0
220
0
230
1
0
LINE
8
0
100
AcDbLine
10
1304
20
 704
30
0.0
11
1324
21
 704
31
0.0
210
0
220
0
230
1
0
LINE
8
0
100
AcDbLine
10
1314
20
 694
30
0.0
11
1314
21
 714
31
0.0
210
0
220
0
230
1
0
CIRCLE
100
AcDbEntity
8
0
100
AcDbCircle
10
1347
20
635
30
0
40
2
210
0
220
0
230
1
0
LINE
8
0
100
AcDbLine
10
1337
20
 635
30
0.0
11
1357
21
 635
31
0.0
210
0
220
0
230
1
0
LINE
8
0
100
AcDbLine
10
1347
20
 625
30
0.0
11
1347
21
 645
31
0.0
210
0
220
0
230
1
0
CIRCLE
100
AcDbEntity
8
0
100
AcDbCircle
10
1347
20
704
30
0
40
3
210
0
220
0
230
1
0
LINE
8
0
100
AcDbLine
10
1337
20
 704
30
0.0
11
1357
21
 704
31
0.0
210
0
220
0
230
1
0
LINE
8
0
100
AcDbLine
10
1347
20
 694
30
0.0
11
1347
21
 714
31
0.0
210
0
220
0
230
1
0
CIRCLE
100
AcDbEntity
8
0
100
AcDbCircle
10
327
20
779
30
0
40
4
210
0
220
0
230
1
0
LINE
8
0
100
AcDbLine
10
 317
20
 779
30
0.0
11
 337
21
 779
31
0.0
210
0
220
0
230
1
0
LINE
8
0
100
AcDbLine
10
 327
20
 769
30
0.0
11
 327
21
 789
31
0.0
210
0
220
0
230
1
0
CIRCLE
100
AcDbEntity
8
0
100
AcDbCircle
10
360
20
838
30
0
40
4
210
0
220
0
230
1
0
LINE
8
0
100
AcDbLine
10
 350
20
 838
30
0.0
11
 370
21
 838
31
0.0
210
0
220
0
230
1
0
LINE
8
0
100
AcDbLine
10
 360
20
 828
30
0.0
11
 360
21
 848
31
0.0
210
0
220
0
230
1
0
CIRCLE
100
AcDbEntity
8
0
100
AcDbCircle
10
392
20
779
30
0
40
4
210
0
220
0
230
1
0
LINE
8
0
100
AcDbLine
10
 382
20
 779
30
0.0
11
 402
21
 779
31
0.0
210
0
220
0
230
1
0
LINE
8
0
100
AcDbLine
10
 392
20
 769
30
0.0
11
 392
21
 789
31
0.0
210
0
220
0
230
1
0
CIRCLE
100
AcDbEntity
8
0
100
AcDbCircle
10
424
20
838
30
0
40
4
210
0
220
0
230
1
0
LINE
8
0
100
AcDbLine
10
 414
20
 838
30
0.0
11
 434
21
 838
31
0.0
210
0
220
0
230
1
0
LINE
8
0
100
AcDbLine
10
 424
20
 828
30
0.0
11
 424
21
 848
31
0.0
210
0
220
0
230
1
0
CIRCLE
100
AcDbEntity
8
0
100
AcDbCircle
10
453
20
779
30
0
40
4
210
0
220
0
230
1
0
LINE
8
0
100
AcDbLine
10
 443
20
 779
30
0.0
11
 463
21
 779
31
0.0
210
0
220
0
230
1
0
LINE
8
0
100
AcDbLine
10
 453
20
 769
30
0.0
11
 453
21
 789
31
0.0
210
0
220
0
230
1
0
CIRCLE
100
AcDbEntity
8
0
100
AcDbCircle
10
482
20
838
30
0
40
4
210
0
220
0
230
1
0
LINE
8
0
100
AcDbLine
10
 472
20
 838
30
0.0
11
 492
21
 838
31
0.0
210
0
220
0
230
1
0
LINE
8
0
100
AcDbLine
10
 482
20
 828
30
0.0
11
 482
21
 848
31
0.0
210
0
220
0
230
1
0
CIRCLE
100
AcDbEntity
8
0
100
AcDbCircle
10
509
20
779
30
0
40
4
210
0
220
0
230
1
0
LINE
8
0
100
AcDbLine
10
 499
20
 779
30
0.0
11
 519
21
 779
31
0.0
210
0
220
0
230
1
0
LINE
8
0
100
AcDbLine
10
 509
20
 769
30
0.0
11
 509
21
 789
31
0.0
210
0
220
0
230
1
0
CIRCLE
100
AcDbEntity
8
0
100
AcDbCircle
10
536
20
838
30
0
40
4
210
0
220
0
230
1
0
LINE
8
0
100
AcDbLine
10
 526
20
 838
30
0.0
11
 546
21
 838
31
0.0
210
0
220
0
230
1
0
LINE
8
0
100
AcDbLine
10
 536
20
 828
30
0.0
11
 536
21
 848
31
0.0
210
0
220
0
230
1
0
CIRCLE
100
AcDbEntity
8
0
100
AcDbCircle
10
562
20
779
30
0
40
4
210
0
220
0
230
1
0
LINE
8
0
100
AcDbLine
10
 552
20
 779
30
0.0
11
 572
21
 779
31
0.0
210
0
220
0
230
1
0
LINE
8
0
100
AcDbLine
10
 562
20
 769
30
0.0
11
 562
21
 789
31
0.0
210
0
220
0
230
1
0
CIRCLE
100
AcDbEntity
8
0
100
AcDbCircle
10
588
20
838
30
0
40
4
210
0
220
0
230
1
0
LINE
8
0
100
AcDbLine
10
 578
20
 838
30
0.0
11
 598
21
 838
31
0.0
210
0
220
0
230
1
0
LINE
8
0
100
AcDbLine
10
 588
20
 828
30
0.0
11
 588
21
 848
31
0.0
210
0
220
0
230
1
0
CIRCLE
100
AcDbEntity
8
0
100
AcDbCircle
10
612
20
779
30
0
40
4
210
0
220
0
230
1
0
LINE
8
0
100
AcDbLine
10
 602
20
 779
30
0.0
11
 622
21
 779
31
0.0
210
0
220
0
230
1
0
LINE
8
0
100
AcDbLine
10
 612
20
 769
30
0.0
11
 612
21
 789
31
0.0
210
0
220
0
230
1
0
CIRCLE
100
AcDbEntity
8
0
100
AcDbCircle
10
636
20
838
30
0
40
4
210
0
220
0
230
1
0
LINE
8
0
100
AcDbLine
10
 626
20
 838
30
0.0
11
 646
21
 838
31
0.0
210
0
220
0
230
1
0
LINE
8
0
100
AcDbLine
10
 636
20
 828
30
0.0
11
 636
21
 848
31
0.0
210
0
220
0
230
1
0
CIRCLE
100
AcDbEntity
8
0
100
AcDbCircle
10
659
20
779
30
0
40
3
210
0
220
0
230
1
0
LINE
8
0
100
AcDbLine
10
 649
20
 779
30
0.0
11
 669
21
 779
31
0.0
210
0
220
0
230
1
0
LINE
8
0
100
AcDbLine
10
 659
20
 769
30
0.0
11
 659
21
 789
31
0.0
210
0
220
0
230
1
0
CIRCLE
100
AcDbEntity
8
0
100
AcDbCircle
10
682
20
838
30
0
40
3
210
0
220
0
230
1
0
LINE
8
0
100
AcDbLine
10
 672
20
 838
30
0.0
11
 692
21
 838
31
0.0
210
0
220
0
230
1
0
LINE
8
0
100
AcDbLine
10
 682
20
 828
30
0.0
11
 682
21
 848
31
0.0
210
0
220
0
230
1
0
CIRCLE
100
AcDbEntity
8
0
100
AcDbCircle
10
704
20
779
30
0
40
3
210
0
220
0
230
1
0
LINE
8
0
100
AcDbLine
10
 694
20
 779
30
0.0
11
 714
21
 779
31
0.0
210
0
220
0
230
1
0
LINE
8
0
100
AcDbLine
10
 704
20
 769
30
0.0
11
 704
21
 789
31
0.0
210
0
220
0
230
1
0
CIRCLE
100
AcDbEntity
8
0
100
AcDbCircle
10
726
20
838
30
0
40
3
210
0
220
0
230
1
0
LINE
8
0
100
AcDbLine
10
 716
20
 838
30
0.0
11
 736
21
 838
31
0.0
210
0
220
0
230
1
0
LINE
8
0
100
AcDbLine
10
 726
20
 828
30
0.0
11
 726
21
 848
31
0.0
210
0
220
0
230
1
0
CIRCLE
100
AcDbEntity
8
0
100
AcDbCircle
10
747
20
779
30
0
40
4
210
0
220
0
230
1
0
LINE
8
0
100
AcDbLine
10
 737
20
 779
30
0.0
11
 757
21
 779
31
0.0
210
0
220
0
230
1
0
LINE
8
0
100
AcDbLine
10
 747
20
 769
30
0.0
11
 747
21
 789
31
0.0
210
0
220
0
230
1
0
CIRCLE
100
AcDbEntity
8
0
100
AcDbCircle
10
768
20
838
30
0
40
3
210
0
220
0
230
1
0
LINE
8
0
100
AcDbLine
10
 758
20
 838
30
0.0
11
 778
21
 838
31
0.0
210
0
220
0
230
1
0
LINE
8
0
100
AcDbLine
10
 768
20
 828
30
0.0
11
 768
21
 848
31
0.0
210
0
220
0
230
1
0
CIRCLE
100
AcDbEntity
8
0
100
AcDbCircle
10
788
20
779
30
0
40
3
210
0
220
0
230
1
0
LINE
8
0
100
AcDbLine
10
 778
20
 779
30
0.0
11
 798
21
 779
31
0.0
210
0
220
0
230
1
0
LINE
8
0
100
AcDbLine
10
 788
20
 769
30
0.0
11
 788
21
 789
31
0.0
210
0
220
0
230
1
0
CIRCLE
100
AcDbEntity
8
0
100
AcDbCircle
10
808
20
838
30
0
40
3
210
0
220
0
230
1
0
LINE
8
0
100
AcDbLine
10
 798
20
 838
30
0.0
11
 818
21
 838
31
0.0
210
0
220
0
230
1
0
LINE
8
0
100
AcDbLine
10
 808
20
 828
30
0.0
11
 808
21
 848
31
0.0
210
0
220
0
230
1
0
CIRCLE
100
AcDbEntity
8
0
100
AcDbCircle
10
828
20
779
30
0
40
3
210
0
220
0
230
1
0
LINE
8
0
100
AcDbLine
10
 818
20
 779
30
0.0
11
 838
21
 779
31
0.0
210
0
220
0
230
1
0
LINE
8
0
100
AcDbLine
10
 828
20
 769
30
0.0
11
 828
21
 789
31
0.0
210
0
220
0
230
1
0
CIRCLE
100
AcDbEntity
8
0
100
AcDbCircle
10
847
20
838
30
0
40
3
210
0
220
0
230
1
0
LINE
8
0
100
AcDbLine
10
 837
20
 838
30
0.0
11
 857
21
 838
31
0.0
210
0
220
0
230
1
0
LINE
8
0
100
AcDbLine
10
 847
20
 828
30
0.0
11
 847
21
 848
31
0.0
210
0
220
0
230
1
0
CIRCLE
100
AcDbEntity
8
0
100
AcDbCircle
10
867
20
779
30
0
40
3
210
0
220
0
230
1
0
LINE
8
0
100
AcDbLine
10
 857
20
 779
30
0.0
11
 877
21
 779
31
0.0
210
0
220
0
230
1
0
LINE
8
0
100
AcDbLine
10
 867
20
 769
30
0.0
11
 867
21
 789
31
0.0
210
0
220
0
230
1
0
CIRCLE
100
AcDbEntity
8
0
100
AcDbCircle
10
887
20
838
30
0
40
2
210
0
220
0
230
1
0
LINE
8
0
100
AcDbLine
10
 877
20
 838
30
0.0
11
 897
21
 838
31
0.0
210
0
220
0
230
1
0
LINE
8
0
100
AcDbLine
10
 887
20
 828
30
0.0
11
 887
21
 848
31
0.0
210
0
220
0
230
1
0
CIRCLE
100
AcDbEntity
8
0
100
AcDbCircle
10
907
20
779
30
0
40
3
210
0
220
0
230
1
0
LINE
8
0
100
AcDbLine
10
 897
20
 779
30
0.0
11
 917
21
 779
31
0.0
210
0
220
0
230
1
0
LINE
8
0
100
AcDbLine
10
 907
20
 769
30
0.0
11
 907
21
 789
31
0.0
210
0
220
0
230
1
0
CIRCLE
100
AcDbEntity
8
0
100
AcDbCircle
10
927
20
838
30
0
40
3
210
0
220
0
230
1
0
LINE
8
0
100
AcDbLine
10
 917
20
 838
30
0.0
11
 937
21
 838
31
0.0
210
0
220
0
230
1
0
LINE
8
0
100
AcDbLine
10
 927
20
 828
30
0.0
11
 927
21
 848
31
0.0
210
0
220
0
230
1
0
CIRCLE
100
AcDbEntity
8
0
100
AcDbCircle
10
947
20
779
30
0
40
3
210
0
220
0
230
1
0
LINE
8
0
100
AcDbLine
10
 937
20
 779
30
0.0
11
 957
21
 779
31
0.0
210
0
220
0
230
1
0
LINE
8
0
100
AcDbLine
10
 947
20
 769
30
0.0
11
 947
21
 789
31
0.0
210
0
220
0
230
1
0
CIRCLE
100
AcDbEntity
8
0
100
AcDbCircle
10
967
20
838
30
0
40
3
210
0
220
0
230
1
0
LINE
8
0
100
AcDbLine
10
 957
20
 838
30
0.0
11
 977
21
 838
31
0.0
210
0
220
0
230
1
0
LINE
8
0
100
AcDbLine
10
 967
20
 828
30
0.0
11
 967
21
 848
31
0.0
210
0
220
0
230
1
0
CIRCLE
100
AcDbEntity
8
0
100
AcDbCircle
10
987
20
779
30
0
40
3
210
0
220
0
230
1
0
LINE
8
0
100
AcDbLine
10
 977
20
 779
30
0.0
11
 997
21
 779
31
0.0
210
0
220
0
230
1
0
LINE
8
0
100
AcDbLine
10
 987
20
 769
30
0.0
11
 987
21
 789
31
0.0
210
0
220
0
230
1
0
CIRCLE
100
AcDbEntity
8
0
100
AcDbCircle
10
1007
20
838
30
0
40
3
210
0
220
0
230
1
0
LINE
8
0
100
AcDbLine
10
 997
20
 838
30
0.0
11
1017
21
 838
31
0.0
210
0
220
0
230
1
0
LINE
8
0
100
AcDbLine
10
1007
20
 828
30
0.0
11
1007
21
 848
31
0.0
210
0
220
0
230
1
0
CIRCLE
100
AcDbEntity
8
0
100
AcDbCircle
10
1027
20
779
30
0
40
3
210
0
220
0
230
1
0
LINE
8
0
100
AcDbLine
10
1017
20
 779
30
0.0
11
1037
21
 779
31
0.0
210
0
220
0
230
1
0
LINE
8
0
100
AcDbLine
10
1027
20
 769
30
0.0
11
1027
21
 789
31
0.0
210
0
220
0
230
1
0
CIRCLE
100
AcDbEntity
8
0
100
AcDbCircle
10
1047
20
838
30
0
40
3
210
0
220
0
230
1
0
LINE
8
0
100
AcDbLine
10
1037
20
 838
30
0.0
11
1057
21
 838
31
0.0
210
0
220
0
230
1
0
LINE
8
0
100
AcDbLine
10
1047
20
 828
30
0.0
11
1047
21
 848
31
0.0
210
0
220
0
230
1
0
CIRCLE
100
AcDbEntity
8
0
100
AcDbCircle
10
1067
20
779
30
0
40
3
210
0
220
0
230
1
0
LINE
8
0
100
AcDbLine
10
1057
20
 779
30
0.0
11
1077
21
 779
31
0.0
210
0
220
0
230
1
0
LINE
8
0
100
AcDbLine
10
1067
20
 769
30
0.0
11
1067
21
 789
31
0.0
210
0
220
0
230
1
0
CIRCLE
100
AcDbEntity
8
0
100
AcDbCircle
10
1087
20
838
30
0
40
3
210
0
220
0
230
1
0
LINE
8
0
100
AcDbLine
10
1077
20
 838
30
0.0
11
1097
21
 838
31
0.0
210
0
220
0
230
1
0
LINE
8
0
100
AcDbLine
10
1087
20
 828
30
0.0
11
1087
21
 848
31
0.0
210
0
220
0
230
1
0
CIRCLE
100
AcDbEntity
8
0
100
AcDbCircle
10
1107
20
779
30
0
40
3
210
0
220
0
230
1
0
LINE
8
0
100
AcDbLine
10
1097
20
 779
30
0.0
11
1117
21
 779
31
0.0
210
0
220
0
230
1
0
LINE
8
0
100
AcDbLine
10
1107
20
 769
30
0.0
11
1107
21
 789
31
0.0
210
0
220
0
230
1
0
CIRCLE
100
AcDbEntity
8
0
100
AcDbCircle
10
1127
20
838
30
0
40
2
210
0
220
0
230
1
0
LINE
8
0
100
AcDbLine
10
1117
20
 838
30
0.0
11
1137
21
 838
31
0.0
210
0
220
0
230
1
0
LINE
8
0
100
AcDbLine
10
1127
20
 828
30
0.0
11
1127
21
 848
31
0.0
210
0
220
0
230
1
0
CIRCLE
100
AcDbEntity
8
0
100
AcDbCircle
10
1147
20
779
30
0
40
2
210
0
220
0
230
1
0
LINE
8
0
100
AcDbLine
10
1137
20
 779
30
0.0
11
1157
21
 779
31
0.0
210
0
220
0
230
1
0
LINE
8
0
100
AcDbLine
10
1147
20
 769
30
0.0
11
1147
21
 789
31
0.0
210
0
220
0
230
1
0
CIRCLE
100
AcDbEntity
8
0
100
AcDbCircle
10
1167
20
838
30
0
40
2
210
0
220
0
230
1
0
LINE
8
0
100
AcDbLine
10
1157
20
 838
30
0.0
11
1177
21
 838
31
0.0
210
0
220
0
230
1
0
LINE
8
0
100
AcDbLine
10
1167
20
 828
30
0.0
11
1167
21
 848
31
0.0
210
0
220
0
230
1
0
CIRCLE
100
AcDbEntity
8
0
100
AcDbCircle
10
1187
20
779
30
0
40
2
210
0
220
0
230
1
0
LINE
8
0
100
AcDbLine
10
1177
20
 779
30
0.0
11
1197
21
 779
31
0.0
210
0
220
0
230
1
0
LINE
8
0
100
AcDbLine
10
1187
20
 769
30
0.0
11
1187
21
 789
31
0.0
210
0
220
0
230
1
0
CIRCLE
100
AcDbEntity
8
0
100
AcDbCircle
10
1207
20
838
30
0
40
2
210
0
220
0
230
1
0
LINE
8
0
100
AcDbLine
10
1197
20
 838
30
0.0
11
1217
21
 838
31
0.0
210
0
220
0
230
1
0
LINE
8
0
100
AcDbLine
10
1207
20
 828
30
0.0
11
1207
21
 848
31
0.0
210
0
220
0
230
1
0
CIRCLE
100
AcDbEntity
8
0
100
AcDbCircle
10
1227
20
779
30
0
40
2
210
0
220
0
230
1
0
LINE
8
0
100
AcDbLine
10
1217
20
 779
30
0.0
11
1237
21
 779
31
0.0
210
0
220
0
230
1
0
LINE
8
0
100
AcDbLine
10
1227
20
 769
30
0.0
11
1227
21
 789
31
0.0
210
0
220
0
230
1
0
CIRCLE
100
AcDbEntity
8
0
100
AcDbCircle
10
1247
20
838
30
0
40
2
210
0
220
0
230
1
0
LINE
8
0
100
AcDbLine
10
1237
20
 838
30
0.0
11
1257
21
 838
31
0.0
210
0
220
0
230
1
0
LINE
8
0
100
AcDbLine
10
1247
20
 828
30
0.0
11
1247
21
 848
31
0.0
210
0
220
0
230
1
0
CIRCLE
100
AcDbEntity
8
0
100
AcDbCircle
10
1267
20
779
30
0
40
2
210
0
220
0
230
1
0
LINE
8
0
100
AcDbLine
10
1257
20
 779
30
0.0
11
1277
21
 779
31
0.0
210
0
220
0
230
1
0
LINE
8
0
100
AcDbLine
10
1267
20
 769
30
0.0
11
1267
21
 789
31
0.0
210
0
220
0
230
1
0
CIRCLE
100
AcDbEntity
8
0
100
AcDbCircle
10
1287
20
838
30
0
40
2
210
0
220
0
230
1
0
LINE
8
0
100
AcDbLine
10
1277
20
 838
30
0.0
11
1297
21
 838
31
0.0
210
0
220
0
230
1
0
LINE
8
0
100
AcDbLine
10
1287
20
 828
30
0.0
11
1287
21
 848
31
0.0
210
0
220
0
230
1
0
CIRCLE
100
AcDbEntity
8
0
100
AcDbCircle
10
1307
20
779
30
0
40
2
210
0
220
0
230
1
0
LINE
8
0
100
AcDbLine
10
1297
20
 779
30
0.0
11
1317
21
 779
31
0.0
210
0
220
0
230
1
0
LINE
8
0
100
AcDbLine
10
1307
20
 769
30
0.0
11
1307
21
 789
31
0.0
210
0
220
0
230
1
0
CIRCLE
100
AcDbEntity
8
0
100
AcDbCircle
10
1327
20
838
30
0
40
2
210
0
220
0
230
1
0
LINE
8
0
100
AcDbLine
10
1317
20
 838
30
0.0
11
1337
21
 838
31
0.0
210
0
220
0
230
1
0
LINE
8
0
100
AcDbLine
10
1327
20
 828
30
0.0
11
1327
21
 848
31
0.0
210
0
220
0
230
1
0
CIRCLE
100
AcDbEntity
8
0
100
AcDbCircle
10
1347
20
779
30
0
40
2
210
0
220
0
230
1
0
LINE
8
0
100
AcDbLine
10
1337
20
 779
30
0.0
11
1357
21
 779
31
0.0
210
0
220
0
230
1
0
LINE
8
0
100
AcDbLine
10
1347
20
 769
30
0.0
11
1347
21
 789
31
0.0
210
0
220
0
230
1
0
CIRCLE
100
AcDbEntity
8
0
100
AcDbCircle
10
1367
20
838
30
0
40
2
210
0
220
0
230
1
0
LINE
8
0
100
AcDbLine
10
1357
20
 838
30
0.0
11
1377
21
 838
31
0.0
210
0
220
0
230
1
0
LINE
8
0
100
AcDbLine
10
1367
20
 828
30
0.0
11
1367
21
 848
31
0.0
210
0
220
0
230
1
0
CIRCLE
100
AcDbEntity
8
0
100
AcDbCircle
10
1387
20
779
30
0
40
2
210
0
220
0
230
1
0
LINE
8
0
100
AcDbLine
10
1377
20
 779
30
0.0
11
1397
21
 779
31
0.0
210
0
220
0
230
1
0
LINE
8
0
100
AcDbLine
10
1387
20
 769
30
0.0
11
1387
21
 789
31
0.0
210
0
220
0
230
1
0
CIRCLE
100
AcDbEntity
8
0
100
AcDbCircle
10
1407
20
838
30
0
40
2
210
0
220
0
230
1
0
LINE
8
0
100
AcDbLine
10
1397
20
 838
30
0.0
11
1417
21
 838
31
0.0
210
0
220
0
230
1
0
LINE
8
0
100
AcDbLine
10
1407
20
 828
30
0.0
11
1407
21
 848
31
0.0
210
0
220
0
230
1
0
CIRCLE
100
AcDbEntity
8
0
100
AcDbCircle
10
1427
20
779
30
0
40
2
210
0
220
0
230
1
0
LINE
8
0
100
AcDbLine
10
1417
20
 779
30
0.0
11
1437
21
 779
31
0.0
210
0
220
0
230
1
0
LINE
8
0
100
AcDbLine
10
1427
20
 769
30
0.0
11
1427
21
 789
31
0.0
210
0
220
0
230
1
0
CIRCLE
100
AcDbEntity
8
0
100
AcDbCircle
10
1447
20
838
30
0
40
2
210
0
220
0
230
1
0
LINE
8
0
100
AcDbLine
10
1437
20
 838
30
0.0
11
1457
21
 838
31
0.0
210
0
220
0
230
1
0
LINE
8
0
100
AcDbLine
10
1447
20
 828
30
0.0
11
1447
21
 848
31
0.0
210
0
220
0
230
1
0
CIRCLE
100
AcDbEntity
8
0
100
AcDbCircle
10
1467
20
779
30
0
40
2
210
0
220
0
230
1
0
LINE
8
0
100
AcDbLine
10
1457
20
 779
30
0.0
11
1477
21
 779
31
0.0
210
0
220
0
230
1
0
LINE
8
0
100
AcDbLine
10
1467
20
 769
30
0.0
11
1467
21
 789
31
0.0
210
0
220
0
230
1
0
CIRCLE
100
AcDbEntity
8
0
100
AcDbCircle
10
1487
20
838
30
0
40
2
210
0
220
0
230
1
0
LINE
8
0
100
AcDbLine
10
1477
20
 838
30
0.0
11
1497
21
 838
31
0.0
210
0
220
0
230
1
0
LINE
8
0
100
AcDbLine
10
1487
20
 828
30
0.0
11
1487
21
 848
31
0.0
210
0
220
0
230
1
0
CIRCLE
100
AcDbEntity
8
0
100
AcDbCircle
10
320
20
945
30
0
40
6
210
0
220
0
230
1
0
LINE
8
0
100
AcDbLine
10
 310
20
 945
30
0.0
11
 330
21
 945
31
0.0
210
0
220
0
230
1
0
LINE
8
0
100
AcDbLine
10
 320
20
 935
30
0.0
11
 320
21
 955
31
0.0
210
0
220
0
230
1
0
CIRCLE
100
AcDbEntity
8
0
100
AcDbCircle
10
348
20
993
30
0
40
6
210
0
220
0
230
1
0
LINE
8
0
100
AcDbLine
10
 338
20
 993
30
0.0
11
 358
21
 993
31
0.0
210
0
220
0
230
1
0
LINE
8
0
100
AcDbLine
10
 348
20
 983
30
0.0
11
 348
21
1003
31
0.0
210
0
220
0
230
1
0
CIRCLE
100
AcDbEntity
8
0
100
AcDbCircle
10
374
20
945
30
0
40
6
210
0
220
0
230
1
0
LINE
8
0
100
AcDbLine
10
 364
20
 945
30
0.0
11
 384
21
 945
31
0.0
210
0
220
0
230
1
0
LINE
8
0
100
AcDbLine
10
 374
20
 935
30
0.0
11
 374
21
 955
31
0.0
210
0
220
0
230
1
0
CIRCLE
100
AcDbEntity
8
0
100
AcDbCircle
10
400
20
993
30
0
40
6
210
0
220
0
230
1
0
LINE
8
0
100
AcDbLine
10
 390
20
 993
30
0.0
11
 410
21
 993
31
0.0
210
0
220
0
230
1
0
LINE
8
0
100
AcDbLine
10
 400
20
 983
30
0.0
11
 400
21
1003
31
0.0
210
0
220
0
230
1
0
CIRCLE
100
AcDbEntity
8
0
100
AcDbCircle
10
426
20
945
30
0
40
6
210
0
220
0
230
1
0
LINE
8
0
100
AcDbLine
10
 416
20
 945
30
0.0
11
 436
21
 945
31
0.0
210
0
220
0
230
1
0
LINE
8
0
100
AcDbLine
10
 426
20
 935
30
0.0
11
 426
21
 955
31
0.0
210
0
220
0
230
1
0
CIRCLE
100
AcDbEntity
8
0
100
AcDbCircle
10
452
20
993
30
0
40
5
210
0
220
0
230
1
0
LINE
8
0
100
AcDbLine
10
 442
20
 993
30
0.0
11
 462
21
 993
31
0.0
210
0
220
0
230
1
0
LINE
8
0
100
AcDbLine
10
 452
20
 983
30
0.0
11
 452
21
1003
31
0.0
210
0
220
0
230
1
0
CIRCLE
100
AcDbEntity
8
0
100
AcDbCircle
10
477
20
945
30
0
40
5
210
0
220
0
230
1
0
LINE
8
0
100
AcDbLine
10
 467
20
 945
30
0.0
11
 487
21
 945
31
0.0
210
0
220
0
230
1
0
LINE
8
0
100
AcDbLine
10
 477
20
 935
30
0.0
11
 477
21
 955
31
0.0
210
0
220
0
230
1
0
CIRCLE
100
AcDbEntity
8
0
100
AcDbCircle
10
502
20
993
30
0
40
5
210
0
220
0
230
1
0
LINE
8
0
100
AcDbLine
10
 492
20
 993
30
0.0
11
 512
21
 993
31
0.0
210
0
220
0
230
1
0
LINE
8
0
100
AcDbLine
10
 502
20
 983
30
0.0
11
 502
21
1003
31
0.0
210
0
220
0
230
1
0
CIRCLE
100
AcDbEntity
8
0
100
AcDbCircle
10
527
20
945
30
0
40
5
210
0
220
0
230
1
0
LINE
8
0
100
AcDbLine
10
 517
20
 945
30
0.0
11
 537
21
 945
31
0.0
210
0
220
0
230
1
0
LINE
8
0
100
AcDbLine
10
 527
20
 935
30
0.0
11
 527
21
 955
31
0.0
210
0
220
0
230
1
0
CIRCLE
100
AcDbEntity
8
0
100
AcDbCircle
10
552
20
993
30
0
40
5
210
0
220
0
230
1
0
LINE
8
0
100
AcDbLine
10
 542
20
 993
30
0.0
11
 562
21
 993
31
0.0
210
0
220
0
230
1
0
LINE
8
0
100
AcDbLine
10
 552
20
 983
30
0.0
11
 552
21
1003
31
0.0
210
0
220
0
230
1
0
CIRCLE
100
AcDbEntity
8
0
100
AcDbCircle
10
576
20
945
30
0
40
5
210
0
220
0
230
1
0
LINE
8
0
100
AcDbLine
10
 566
20
 945
30
0.0
11
 586
21
 945
31
0.0
210
0
220
0
230
1
0
LINE
8
0
100
AcDbLine
10
 576
20
 935
30
0.0
11
 576
21
 955
31
0.0
210
0
220
0
230
1
0
CIRCLE
100
AcDbEntity
8
0
100
AcDbCircle
10
600
20
993
30
0
40
5
210
0
220
0
230
1
0
LINE
8
0
100
AcDbLine
10
 590
20
 993
30
0.0
11
 610
21
 993
31
0.0
210
0
220
0
230
1
0
LINE
8
0
100
AcDbLine
10
 600
20
 983
30
0.0
11
 600
21
1003
31
0.0
210
0
220
0
230
1
0
CIRCLE
100
AcDbEntity
8
0
100
AcDbCircle
10
627
20
945
30
0
40
5
210
0
220
0
230
1
0
LINE
8
0
100
AcDbLine
10
 617
20
 945
30
0.0
11
 637
21
 945
31
0.0
210
0
220
0
230
1
0
LINE
8
0
100
AcDbLine
10
 627
20
 935
30
0.0
11
 627
21
 955
31
0.0
210
0
220
0
230
1
0
CIRCLE
100
AcDbEntity
8
0
100
AcDbCircle
10
653
20
993
30
0
40
5
210
0
220
0
230
1
0
LINE
8
0
100
AcDbLine
10
 643
20
 993
30
0.0
11
 663
21
 993
31
0.0
210
0
220
0
230
1
0
LINE
8
0
100
AcDbLine
10
 653
20
 983
30
0.0
11
 653
21
1003
31
0.0
210
0
220
0
230
1
0
CIRCLE
100
AcDbEntity
8
0
100
AcDbCircle
10
679
20
945
30
0
40
6
210
0
220
0
230
1
0
LINE
8
0
100
AcDbLine
10
 669
20
 945
30
0.0
11
 689
21
 945
31
0.0
210
0
220
0
230
1
0
LINE
8
0
100
AcDbLine
10
 679
20
 935
30
0.0
11
 679
21
 955
31
0.0
210
0
220
0
230
1
0
CIRCLE
100
AcDbEntity
8
0
100
AcDbCircle
10
705
20
993
30
0
40
5
210
0
220
0
230
1
0
LINE
8
0
100
AcDbLine
10
 695
20
 993
30
0.0
11
 715
21
 993
31
0.0
210
0
220
0
230
1
0
LINE
8
0
100
AcDbLine
10
 705
20
 983
30
0.0
11
 705
21
1003
31
0.0
210
0
220
0
230
1
0
CIRCLE
100
AcDbEntity
8
0
100
AcDbCircle
10
731
20
945
30
0
40
5
210
0
220
0
230
1
0
LINE
8
0
100
AcDbLine
10
 721
20
 945
30
0.0
11
 741
21
 945
31
0.0
210
0
220
0
230
1
0
LINE
8
0
100
AcDbLine
10
 731
20
 935
30
0.0
11
 731
21
 955
31
0.0
210
0
220
0
230
1
0
CIRCLE
100
AcDbEntity
8
0
100
AcDbCircle
10
757
20
993
30
0
40
5
210
0
220
0
230
1
0
LINE
8
0
100
AcDbLine
10
 747
20
 993
30
0.0
11
 767
21
 993
31
0.0
210
0
220
0
230
1
0
LINE
8
0
100
AcDbLine
10
 757
20
 983
30
0.0
11
 757
21
1003
31
0.0
210
0
220
0
230
1
0
CIRCLE
100
AcDbEntity
8
0
100
AcDbCircle
10
780
20
945
30
0
40
4
210
0
220
0
230
1
0
LINE
8
0
100
AcDbLine
10
 770
20
 945
30
0.0
11
 790
21
 945
31
0.0
210
0
220
0
230
1
0
LINE
8
0
100
AcDbLine
10
 780
20
 935
30
0.0
11
 780
21
 955
31
0.0
210
0
220
0
230
1
0
CIRCLE
100
AcDbEntity
8
0
100
AcDbCircle
10
803
20
993
30
0
40
5
210
0
220
0
230
1
0
LINE
8
0
100
AcDbLine
10
 793
20
 993
30
0.0
11
 813
21
 993
31
0.0
210
0
220
0
230
1
0
LINE
8
0
100
AcDbLine
10
 803
20
 983
30
0.0
11
 803
21
1003
31
0.0
210
0
220
0
230
1
0
CIRCLE
100
AcDbEntity
8
0
100
AcDbCircle
10
827
20
945
30
0
40
5
210
0
220
0
230
1
0
LINE
8
0
100
AcDbLine
10
 817
20
 945
30
0.0
11
 837
21
 945
31
0.0
210
0
220
0
230
1
0
LINE
8
0
100
AcDbLine
10
 827
20
 935
30
0.0
11
 827
21
 955
31
0.0
210
0
220
0
230
1
0
CIRCLE
100
AcDbEntity
8
0
100
AcDbCircle
10
850
20
993
30
0
40
4
210
0
220
0
230
1
0
LINE
8
0
100
AcDbLine
10
 840
20
 993
30
0.0
11
 860
21
 993
31
0.0
210
0
220
0
230
1
0
LINE
8
0
100
AcDbLine
10
 850
20
 983
30
0.0
11
 850
21
1003
31
0.0
210
0
220
0
230
1
0
CIRCLE
100
AcDbEntity
8
0
100
AcDbCircle
10
874
20
945
30
0
40
4
210
0
220
0
230
1
0
LINE
8
0
100
AcDbLine
10
 864
20
 945
30
0.0
11
 884
21
 945
31
0.0
210
0
220
0
230
1
0
LINE
8
0
100
AcDbLine
10
 874
20
 935
30
0.0
11
 874
21
 955
31
0.0
210
0
220
0
230
1
0
CIRCLE
100
AcDbEntity
8
0
100
AcDbCircle
10
897
20
993
30
0
40
4
210
0
220
0
230
1
0
LINE
8
0
100
AcDbLine
10
 887
20
 993
30
0.0
11
 907
21
 993
31
0.0
210
0
220
0
230
1
0
LINE
8
0
100
AcDbLine
10
 897
20
 983
30
0.0
11
 897
21
1003
31
0.0
210
0
220
0
230
1
0
CIRCLE
100
AcDbEntity
8
0
100
AcDbCircle
10
921
20
945
30
0
40
4
210
0
220
0
230
1
0
LINE
8
0
100
AcDbLine
10
 911
20
 945
30
0.0
11
 931
21
 945
31
0.0
210
0
220
0
230
1
0
LINE
8
0
100
AcDbLine
10
 921
20
 935
30
0.0
11
 921
21
 955
31
0.0
210
0
220
0
230
1
0
CIRCLE
100
AcDbEntity
8
0
100
AcDbCircle
10
939
20
993
30
0
40
4
210
0
220
0
230
1
0
LINE
8
0
100
AcDbLine
10
 929
20
 993
30
0.0
11
 949
21
 993
31
0.0
210
0
220
0
230
1
0
LINE
8
0
100
AcDbLine
10
 939
20
 983
30
0.0
11
 939
21
1003
31
0.0
210
0
220
0
230
1
0
CIRCLE
100
AcDbEntity
8
0
100
AcDbCircle
10
961
20
945
30
0
40
4
210
0
220
0
230
1
0
LINE
8
0
100
AcDbLine
10
 951
20
 945
30
0.0
11
 971
21
 945
31
0.0
210
0
220
0
230
1
0
LINE
8
0
100
AcDbLine
10
 961
20
 935
30
0.0
11
 961
21
 955
31
0.0
210
0
220
0
230
1
0
CIRCLE
100
AcDbEntity
8
0
100
AcDbCircle
10
983
20
993
30
0
40
4
210
0
220
0
230
1
0
LINE
8
0
100
AcDbLine
10
 973
20
 993
30
0.0
11
 993
21
 993
31
0.0
210
0
220
0
230
1
0
LINE
8
0
100
AcDbLine
10
 983
20
 983
30
0.0
11
 983
21
1003
31
0.0
210
0
220
0
230
1
0
CIRCLE
100
AcDbEntity
8
0
100
AcDbCircle
10
1005
20
945
30
0
40
4
210
0
220
0
230
1
0
LINE
8
0
100
AcDbLine
10
 995
20
 945
30
0.0
11
1015
21
 945
31
0.0
210
0
220
0
230
1
0
LINE
8
0
100
AcDbLine
10
1005
20
 935
30
0.0
11
1005
21
 955
31
0.0
210
0
220
0
230
1
0
CIRCLE
100
AcDbEntity
8
0
100
AcDbCircle
10
1027
20
993
30
0
40
4
210
0
220
0
230
1
0
LINE
8
0
100
AcDbLine
10
1017
20
 993
30
0.0
11
1037
21
 993
31
0.0
210
0
220
0
230
1
0
LINE
8
0
100
AcDbLine
10
1027
20
 983
30
0.0
11
1027
21
1003
31
0.0
210
0
220
0
230
1
0
CIRCLE
100
AcDbEntity
8
0
100
AcDbCircle
10
1049
20
945
30
0
40
4
210
0
220
0
230
1
0
LINE
8
0
100
AcDbLine
10
1039
20
 945
30
0.0
11
1059
21
 945
31
0.0
210
0
220
0
230
1
0
LINE
8
0
100
AcDbLine
10
1049
20
 935
30
0.0
11
1049
21
 955
31
0.0
210
0
220
0
230
1
0
CIRCLE
100
AcDbEntity
8
0
100
AcDbCircle
10
1071
20
993
30
0
40
4
210
0
220
0
230
1
0
LINE
8
0
100
AcDbLine
10
1061
20
 993
30
0.0
11
1081
21
 993
31
0.0
210
0
220
0
230
1
0
LINE
8
0
100
AcDbLine
10
1071
20
 983
30
0.0
11
1071
21
1003
31
0.0
210
0
220
0
230
1
0
CIRCLE
100
AcDbEntity
8
0
100
AcDbCircle
10
1093
20
945
30
0
40
4
210
0
220
0
230
1
0
LINE
8
0
100
AcDbLine
10
1083
20
 945
30
0.0
11
1103
21
 945
31
0.0
210
0
220
0
230
1
0
LINE
8
0
100
AcDbLine
10
1093
20
 935
30
0.0
11
1093
21
 955
31
0.0
210
0
220
0
230
1
0
CIRCLE
100
AcDbEntity
8
0
100
AcDbCircle
10
1115
20
993
30
0
40
4
210
0
220
0
230
1
0
LINE
8
0
100
AcDbLine
10
1105
20
 993
30
0.0
11
1125
21
 993
31
0.0
210
0
220
0
230
1
0
LINE
8
0
100
AcDbLine
10
1115
20
 983
30
0.0
11
1115
21
1003
31
0.0
210
0
220
0
230
1
0
CIRCLE
100
AcDbEntity
8
0
100
AcDbCircle
10
1137
20
945
30
0
40
4
210
0
220
0
230
1
0
LINE
8
0
100
AcDbLine
10
1127
20
 945
30
0.0
11
1147
21
 945
31
0.0
210
0
220
0
230
1
0
LINE
8
0
100
AcDbLine
10
1137
20
 935
30
0.0
11
1137
21
 955
31
0.0
210
0
220
0
230
1
0
CIRCLE
100
AcDbEntity
8
0
100
AcDbCircle
10
1159
20
993
30
0
40
4
210
0
220
0
230
1
0
LINE
8
0
100
AcDbLine
10
1149
20
 993
30
0.0
11
1169
21
 993
31
0.0
210
0
220
0
230
1
0
LINE
8
0
100
AcDbLine
10
1159
20
 983
30
0.0
11
1159
21
1003
31
0.0
210
0
220
0
230
1
0
CIRCLE
100
AcDbEntity
8
0
100
AcDbCircle
10
1181
20
945
30
0
40
4
210
0
220
0
230
1
0
LINE
8
0
100
AcDbLine
10
1171
20
 945
30
0.0
11
1191
21
 945
31
0.0
210
0
220
0
230
1
0
LINE
8
0
100
AcDbLine
10
1181
20
 935
30
0.0
11
1181
21
 955
31
0.0
210
0
220
0
230
1
0
CIRCLE
100
AcDbEntity
8
0
100
AcDbCircle
10
1203
20
993
30
0
40
4
210
0
220
0
230
1
0
LINE
8
0
100
AcDbLine
10
1193
20
 993
30
0.0
11
1213
21
 993
31
0.0
210
0
220
0
230
1
0
LINE
8
0
100
AcDbLine
10
1203
20
 983
30
0.0
11
1203
21
1003
31
0.0
210
0
220
0
230
1
0
CIRCLE
100
AcDbEntity
8
0
100
AcDbCircle
10
1224
20
945
30
0
40
4
210
0
220
0
230
1
0
LINE
8
0
100
AcDbLine
10
1214
20
 945
30
0.0
11
1234
21
 945
31
0.0
210
0
220
0
230
1
0
LINE
8
0
100
AcDbLine
10
1224
20
 935
30
0.0
11
1224
21
 955
31
0.0
210
0
220
0
230
1
0
CIRCLE
100
AcDbEntity
8
0
100
AcDbCircle
10
1245
20
993
30
0
40
4
210
0
220
0
230
1
0
LINE
8
0
100
AcDbLine
10
1235
20
 993
30
0.0
11
1255
21
 993
31
0.0
210
0
220
0
230
1
0
LINE
8
0
100
AcDbLine
10
1245
20
 983
30
0.0
11
1245
21
1003
31
0.0
210
0
220
0
230
1
0
CIRCLE
100
AcDbEntity
8
0
100
AcDbCircle
10
1266
20
945
30
0
40
4
210
0
220
0
230
1
0
LINE
8
0
100
AcDbLine
10
1256
20
 945
30
0.0
11
1276
21
 945
31
0.0
210
0
220
0
230
1
0
LINE
8
0
100
AcDbLine
10
1266
20
 935
30
0.0
11
1266
21
 955
31
0.0
210
0
220
0
230
1
0
CIRCLE
100
AcDbEntity
8
0
100
AcDbCircle
10
1287
20
993
30
0
40
4
210
0
220
0
230
1
0
LINE
8
0
100
AcDbLine
10
1277
20
 993
30
0.0
11
1297
21
 993
31
0.0
210
0
220
0
230
1
0
LINE
8
0
100
AcDbLine
10
1287
20
 983
30
0.0
11
1287
21
1003
31
0.0
210
0
220
0
230
1
0
CIRCLE
100
AcDbEntity
8
0
100
AcDbCircle
10
1308
20
945
30
0
40
4
210
0
220
0
230
1
0
LINE
8
0
100
AcDbLine
10
1298
20
 945
30
0.0
11
1318
21
 945
31
0.0
210
0
220
0
230
1
0
LINE
8
0
100
AcDbLine
10
1308
20
 935
30
0.0
11
1308
21
 955
31
0.0
210
0
220
0
230
1
0
CIRCLE
100
AcDbEntity
8
0
100
AcDbCircle
10
1329
20
993
30
0
40
4
210
0
220
0
230
1
0
LINE
8
0
100
AcDbLine
10
1319
20
 993
30
0.0
11
1339
21
 993
31
0.0
210
0
220
0
230
1
0
LINE
8
0
100
AcDbLine
10
1329
20
 983
30
0.0
11
1329
21
1003
31
0.0
210
0
220
0
230
1
0
CIRCLE
100
AcDbEntity
8
0
100
AcDbCircle
10
1350
20
945
30
0
40
4
210
0
220
0
230
1
0
LINE
8
0
100
AcDbLine
10
1340
20
 945
30
0.0
11
1360
21
 945
31
0.0
210
0
220
0
230
1
0
LINE
8
0
100
AcDbLine
10
1350
20
 935
30
0.0
11
1350
21
 955
31
0.0
210
0
220
0
230
1
0
CIRCLE
100
AcDbEntity
8
0
100
AcDbCircle
10
1371
20
993
30
0
40
4
210
0
220
0
230
1
0
LINE
8
0
100
AcDbLine
10
1361
20
 993
30
0.0
11
1381
21
 993
31
0.0
210
0
220
0
230
1
0
LINE
8
0
100
AcDbLine
10
1371
20
 983
30
0.0
11
1371
21
1003
31
0.0
210
0
220
0
230
1
0
CIRCLE
100
AcDbEntity
8
0
100
AcDbCircle
10
1392
20
945
30
0
40
4
210
0
220
0
230
1
0
LINE
8
0
100
AcDbLine
10
1382
20
 945
30
0.0
11
1402
21
 945
31
0.0
210
0
220
0
230
1
0
LINE
8
0
100
AcDbLine
10
1392
20
 935
30
0.0
11
1392
21
 955
31
0.0
210
0
220
0
230
1
0
CIRCLE
100
AcDbEntity
8
0
100
AcDbCircle
10
1413
20
993
30
0
40
4
210
0
220
0
230
1
0
LINE
8
0
100
AcDbLine
10
1403
20
 993
30
0.0
11
1423
21
 993
31
0.0
210
0
220
0
230
1
0
LINE
8
0
100
AcDbLine
10
1413
20
 983
30
0.0
11
1413
21
1003
31
0.0
210
0
220
0
230
1
0
CIRCLE
100
AcDbEntity
8
0
100
AcDbCircle
10
1433
20
945
30
0
40
4
210
0
220
0
230
1
0
LINE
8
0
100
AcDbLine
10
1423
20
 945
30
0.0
11
1443
21
 945
31
0.0
210
0
220
0
230
1
0
LINE
8
0
100
AcDbLine
10
1433
20
 935
30
0.0
11
1433
21
 955
31
0.0
210
0
220
0
230
1
0
CIRCLE
100
AcDbEntity
8
0
100
AcDbCircle
10
1453
20
993
30
0
40
4
210
0
220
0
230
1
0
LINE
8
0
100
AcDbLine
10
1443
20
 993
30
0.0
11
1463
21
 993
31
0.0
210
0
220
0
230
1
0
LINE
8
0
100
AcDbLine
10
1453
20
 983
30
0.0
11
1453
21
1003
31
0.0
210
0
220
0
230
1
0
CIRCLE
100
AcDbEntity
8
0
100
AcDbCircle
10
1474
20
945
30
0
40
3
210
0
220
0
230
1
0
LINE
8
0
100
AcDbLine
10
1464
20
 945
30
0.0
11
1484
21
 945
31
0.0
210
0
220
0
230
1
0
LINE
8
0
100
AcDbLine
10
1474
20
 935
30
0.0
11
1474
21
 955
31
0.0
210
0
220
0
230
1
0
CIRCLE
100
AcDbEntity
8
0
100
AcDbCircle
10
1494
20
993
30
0
40
6
210
0
220
0
230
1
0
LINE
8
0
100
AcDbLine
10
1484
20
 993
30
0.0
11
1504
21
 993
31
0.0
210
0
220
0
230
1
0
LINE
8
0
100
AcDbLine
10
1494
20
 983
30
0.0
11
1494
21
1003
31
0.0
210
0
220
0
230
1
0
CIRCLE
100
AcDbEntity
8
0
100
AcDbCircle
10
1515
20
945
30
0
40
3
210
0
220
0
230
1
0
LINE
8
0
100
AcDbLine
10
1505
20
 945
30
0.0
11
1525
21
 945
31
0.0
210
0
220
0
230
1
0
LINE
8
0
100
AcDbLine
10
1515
20
 935
30
0.0
11
1515
21
 955
31
0.0
210
0
220
0
230
1
0
CIRCLE
100
AcDbEntity
8
0
100
AcDbCircle
10
1535
20
993
30
0
40
4
210
0
220
0
230
1
0
LINE
8
0
100
AcDbLine
10
1525
20
 993
30
0.0
11
1545
21
 993
31
0.0
210
0
220
0
230
1
0
LINE
8
0
100
AcDbLine
10
1535
20
 983
30
0.0
11
1535
21
1003
31
0.0
210
0
220
0
230
1
0
CIRCLE
100
AcDbEntity
8
0
100
AcDbCircle
10
59
20
59
30
0
40
6
210
0
220
0
230
1
0
LINE
8
0
100
AcDbLine
10
  49
20
  59
30
0.0
11
  69
21
  59
31
0.0
210
0
220
0
230
1
0
LINE
8
0
100
AcDbLine
10
  59
20
  49
30
0.0
11
  59
21
  69
31
0.0
210
0
220
0
230
1
0
CIRCLE
100
AcDbEntity
8
0
100
AcDbCircle
10
103
20
135
30
0
40
7
210
0
220
0
230
1
0
LINE
8
0
100
AcDbLine
10
  93
20
 135
30
0.0
11
 113
21
 135
31
0.0
210
0
220
0
230
1
0
LINE
8
0
100
AcDbLine
10
 103
20
 125
30
0.0
11
 103
21
 145
31
0.0
210
0
220
0
230
1
0
CIRCLE
100
AcDbEntity
8
0
100
AcDbCircle
10
145
20
59
30
0
40
6
210
0
220
0
230
1
0
LINE
8
0
100
AcDbLine
10
 135
20
  59
30
0.0
11
 155
21
  59
31
0.0
210
0
220
0
230
1
0
LINE
8
0
100
AcDbLine
10
 145
20
  49
30
0.0
11
 145
21
  69
31
0.0
210
0
220
0
230
1
0
CIRCLE
100
AcDbEntity
8
0
100
AcDbCircle
10
187
20
135
30
0
40
6
210
0
220
0
230
1
0
LINE
8
0
100
AcDbLine
10
 177
20
 135
30
0.0
11
 197
21
 135
31
0.0
210
0
220
0
230
1
0
LINE
8
0
100
AcDbLine
10
 187
20
 125
30
0.0
11
 187
21
 145
31
0.0
210
0
220
0
230
1
0
CIRCLE
100
AcDbEntity
8
0
100
AcDbCircle
10
226
20
59
30
0
40
6
210
0
220
0
230
1
0
LINE
8
0
100
AcDbLine
10
 216
20
  59
30
0.0
11
 236
21
  59
31
0.0
210
0
220
0
230
1
0
LINE
8
0
100
AcDbLine
10
 226
20
  49
30
0.0
11
 226
21
  69
31
0.0
210
0
220
0
230
1
0
CIRCLE
100
AcDbEntity
8
0
100
AcDbCircle
10
265
20
135
30
0
40
6
210
0
220
0
230
1
0
LINE
8
0
100
AcDbLine
10
 255
20
 135
30
0.0
11
 275
21
 135
31
0.0
210
0
220
0
230
1
0
LINE
8
0
100
AcDbLine
10
 265
20
 125
30
0.0
11
 265
21
 145
31
0.0
210
0
220
0
230
1
0
CIRCLE
100
AcDbEntity
8
0
100
AcDbCircle
10
302
20
59
30
0
40
6
210
0
220
0
230
1
0
LINE
8
0
100
AcDbLine
10
 292
20
  59
30
0.0
11
 312
21
  59
31
0.0
210
0
220
0
230
1
0
LINE
8
0
100
AcDbLine
10
 302
20
  49
30
0.0
11
 302
21
  69
31
0.0
210
0
220
0
230
1
0
CIRCLE
100
AcDbEntity
8
0
100
AcDbCircle
10
338
20
135
30
0
40
6
210
0
220
0
230
1
0
LINE
8
0
100
AcDbLine
10
 328
20
 135
30
0.0
11
 348
21
 135
31
0.0
210
0
220
0
230
1
0
LINE
8
0
100
AcDbLine
10
 338
20
 125
30
0.0
11
 338
21
 145
31
0.0
210
0
220
0
230
1
0
CIRCLE
100
AcDbEntity
8
0
100
AcDbCircle
10
374
20
59
30
0
40
6
210
0
220
0
230
1
0
LINE
8
0
100
AcDbLine
10
 364
20
  59
30
0.0
11
 384
21
  59
31
0.0
210
0
220
0
230
1
0
LINE
8
0
100
AcDbLine
10
 374
20
  49
30
0.0
11
 374
21
  69
31
0.0
210
0
220
0
230
1
0
CIRCLE
100
AcDbEntity
8
0
100
AcDbCircle
10
410
20
135
30
0
40
5
210
0
220
0
230
1
0
LINE
8
0
100
AcDbLine
10
 400
20
 135
30
0.0
11
 420
21
 135
31
0.0
210
0
220
0
230
1
0
LINE
8
0
100
AcDbLine
10
 410
20
 125
30
0.0
11
 410
21
 145
31
0.0
210
0
220
0
230
1
0
CIRCLE
100
AcDbEntity
8
0
100
AcDbCircle
10
445
20
59
30
0
40
5
210
0
220
0
230
1
0
LINE
8
0
100
AcDbLine
10
 435
20
  59
30
0.0
11
 455
21
  59
31
0.0
210
0
220
0
230
1
0
LINE
8
0
100
AcDbLine
10
 445
20
  49
30
0.0
11
 445
21
  69
31
0.0
210
0
220
0
230
1
0
CIRCLE
100
AcDbEntity
8
0
100
AcDbCircle
10
480
20
135
30
0
40
5
210
0
220
0
230
1
0
LINE
8
0
100
AcDbLine
10
 470
20
 135
30
0.0
11
 490
21
 135
31
0.0
210
0
220
0
230
1
0
LINE
8
0
100
AcDbLine
10
 480
20
 125
30
0.0
11
 480
21
 145
31
0.0
210
0
220
0
230
1
0
CIRCLE
100
AcDbEntity
8
0
100
AcDbCircle
10
514
20
59
30
0
40
5
210
0
220
0
230
1
0
LINE
8
0
100
AcDbLine
10
 504
20
  59
30
0.0
11
 524
21
  59
31
0.0
210
0
220
0
230
1
0
LINE
8
0
100
AcDbLine
10
 514
20
  49
30
0.0
11
 514
21
  69
31
0.0
210
0
220
0
230
1
0
CIRCLE
100
AcDbEntity
8
0
100
AcDbCircle
10
548
20
135
30
0
40
5
210
0
220
0
230
1
0
LINE
8
0
100
AcDbLine
10
 538
20
 135
30
0.0
11
 558
21
 135
31
0.0
210
0
220
0
230
1
0
LINE
8
0
100
AcDbLine
10
 548
20
 125
30
0.0
11
 548
21
 145
31
0.0
210
0
220
0
230
1
0
CIRCLE
100
AcDbEntity
8
0
100
AcDbCircle
10
582
20
59
30
0
40
5
210
0
220
0
230
1
0
LINE
8
0
100
AcDbLine
10
 572
20
  59
30
0.0
11
 592
21
  59
31
0.0
210
0
220
0
230
1
0
LINE
8
0
100
AcDbLine
10
 582
20
  49
30
0.0
11
 582
21
  69
31
0.0
210
0
220
0
230
1
0
CIRCLE
100
AcDbEntity
8
0
100
AcDbCircle
10
616
20
135
30
0
40
5
210
0
220
0
230
1
0
LINE
8
0
100
AcDbLine
10
 606
20
 135
30
0.0
11
 626
21
 135
31
0.0
210
0
220
0
230
1
0
LINE
8
0
100
AcDbLine
10
 616
20
 125
30
0.0
11
 616
21
 145
31
0.0
210
0
220
0
230
1
0
CIRCLE
100
AcDbEntity
8
0
100
AcDbCircle
10
649
20
59
30
0
40
5
210
0
220
0
230
1
0
LINE
8
0
100
AcDbLine
10
 639
20
  59
30
0.0
11
 659
21
  59
31
0.0
210
0
220
0
230
1
0
LINE
8
0
100
AcDbLine
10
 649
20
  49
30
0.0
11
 649
21
  69
31
0.0
210
0
220
0
230
1
0
CIRCLE
100
AcDbEntity
8
0
100
AcDbCircle
10
680
20
135
30
0
40
4
210
0
220
0
230
1
0
LINE
8
0
100
AcDbLine
10
 670
20
 135
30
0.0
11
 690
21
 135
31
0.0
210
0
220
0
230
1
0
LINE
8
0
100
AcDbLine
10
 680
20
 125
30
0.0
11
 680
21
 145
31
0.0
210
0
220
0
230
1
0
CIRCLE
100
AcDbEntity
8
0
100
AcDbCircle
10
710
20
59
30
0
40
5
210
0
220
0
230
1
0
LINE
8
0
100
AcDbLine
10
 700
20
  59
30
0.0
11
 720
21
  59
31
0.0
210
0
220
0
230
1
0
LINE
8
0
100
AcDbLine
10
 710
20
  49
30
0.0
11
 710
21
  69
31
0.0
210
0
220
0
230
1
0
CIRCLE
100
AcDbEntity
8
0
100
AcDbCircle
10
740
20
135
30
0
40
4
210
0
220
0
230
1
0
LINE
8
0
100
AcDbLine
10
 730
20
 135
30
0.0
11
 750
21
 135
31
0.0
210
0
220
0
230
1
0
LINE
8
0
100
AcDbLine
10
 740
20
 125
30
0.0
11
 740
21
 145
31
0.0
210
0
220
0
230
1
0
CIRCLE
100
AcDbEntity
8
0
100
AcDbCircle
10
770
20
59
30
0
40
5
210
0
220
0
230
1
0
LINE
8
0
100
AcDbLine
10
 760
20
  59
30
0.0
11
 780
21
  59
31
0.0
210
0
220
0
230
1
0
LINE
8
0
100
AcDbLine
10
 770
20
  49
30
0.0
11
 770
21
  69
31
0.0
210
0
220
0
230
1
0
CIRCLE
100
AcDbEntity
8
0
100
AcDbCircle
10
800
20
135
30
0
40
5
210
0
220
0
230
1
0
LINE
8
0
100
AcDbLine
10
 790
20
 135
30
0.0
11
 810
21
 135
31
0.0
210
0
220
0
230
1
0
LINE
8
0
100
AcDbLine
10
 800
20
 125
30
0.0
11
 800
21
 145
31
0.0
210
0
220
0
230
1
0
CIRCLE
100
AcDbEntity
8
0
100
AcDbCircle
10
828
20
59
30
0
40
4
210
0
220
0
230
1
0
LINE
8
0
100
AcDbLine
10
 818
20
  59
30
0.0
11
 838
21
  59
31
0.0
210
0
220
0
230
1
0
LINE
8
0
100
AcDbLine
10
 828
20
  49
30
0.0
11
 828
21
  69
31
0.0
210
0
220
0
230
1
0
CIRCLE
100
AcDbEntity
8
0
100
AcDbCircle
10
856
20
135
30
0
40
4
210
0
220
0
230
1
0
LINE
8
0
100
AcDbLine
10
 846
20
 135
30
0.0
11
 866
21
 135
31
0.0
210
0
220
0
230
1
0
LINE
8
0
100
AcDbLine
10
 856
20
 125
30
0.0
11
 856
21
 145
31
0.0
210
0
220
0
230
1
0
CIRCLE
100
AcDbEntity
8
0
100
AcDbCircle
10
79
20
268
30
0
40
8
210
0
220
0
230
1
0
LINE
8
0
100
AcDbLine
10
  69
20
 268
30
0.0
11
  89
21
 268
31
0.0
210
0
220
0
230
1
0
LINE
8
0
100
AcDbLine
10
  79
20
 258
30
0.0
11
  79
21
 278
31
0.0
210
0
220
0
230
1
0
CIRCLE
100
AcDbEntity
8
0
100
AcDbCircle
10
213
20
268
30
0
40
10
210
0
220
0
230
1
0
LINE
8
0
100
AcDbLine
10
 203
20
 268
30
0.0
11
 223
21
 268
31
0.0
210
0
220
0
230
1
0
LINE
8
0
100
AcDbLine
10
 213
20
 258
30
0.0
11
 213
21
 278
31
0.0
210
0
220
0
230
1
0
CIRCLE
100
AcDbEntity
8
0
100
AcDbCircle
10
79
20
395
30
0
40
9
210
0
220
0
230
1
0
LINE
8
0
100
AcDbLine
10
  69
20
 395
30
0.0
11
  89
21
 395
31
0.0
210
0
220
0
230
1
0
LINE
8
0
100
AcDbLine
10
  79
20
 385
30
0.0
11
  79
21
 405
31
0.0
210
0
220
0
230
1
0
CIRCLE
100
AcDbEntity
8
0
100
AcDbCircle
10
212
20
395
30
0
40
8
210
0
220
0
230
1
0
LINE
8
0
100
AcDbLine
10
 202
20
 395
30
0.0
11
 222
21
 395
31
0.0
210
0
220
0
230
1
0
LINE
8
0
100
AcDbLine
10
 212
20
 385
30
0.0
11
 212
21
 405
31
0.0
210
0
220
0
230
1
0
CIRCLE
100
AcDbEntity
8
0
100
AcDbCircle
10
79
20
514
30
0
40
8
210
0
220
0
230
1
0
LINE
8
0
100
AcDbLine
10
  69
20
 514
30
0.0
11
  89
21
 514
31
0.0
210
0
220
0
230
1
0
LINE
8
0
100
AcDbLine
10
  79
20
 504
30
0.0
11
  79
21
 524
31
0.0
210
0
220
0
230
1
0
CIRCLE
100
AcDbEntity
8
0
100
AcDbCircle
10
209
20
514
30
0
40
8
210
0
220
0
230
1
0
LINE
8
0
100
AcDbLine
10
 199
20
 514
30
0.0
11
 219
21
 514
31
0.0
210
0
220
0
230
1
0
LINE
8
0
100
AcDbLine
10
 209
20
 504
30
0.0
11
 209
21
 524
31
0.0
210
0
220
0
230
1
0
CIRCLE
100
AcDbEntity
8
0
100
AcDbCircle
10
79
20
623
30
0
40
8
210
0
220
0
230
1
0
LINE
8
0
100
AcDbLine
10
  69
20
 623
30
0.0
11
  89
21
 623
31
0.0
210
0
220
0
230
1
0
LINE
8
0
100
AcDbLine
10
  79
20
 613
30
0.0
11
  79
21
 633
31
0.0
210
0
220
0
230
1
0
CIRCLE
100
AcDbEntity
8
0
100
AcDbCircle
10
208
20
623
30
0
40
8
210
0
220
0
230
1
0
LINE
8
0
100
AcDbLine
10
 198
20
 623
30
0.0
11
 218
21
 623
31
0.0
210
0
220
0
230
1
0
LINE
8
0
100
AcDbLine
10
 208
20
 613
30
0.0
11
 208
21
 633
31
0.0
210
0
220
0
230
1
0
CIRCLE
100
AcDbEntity
8
0
100
AcDbCircle
10
79
20
725
30
0
40
8
210
0
220
0
230
1
0
LINE
8
0
100
AcDbLine
10
  69
20
 725
30
0.0
11
  89
21
 725
31
0.0
210
0
220
0
230
1
0
LINE
8
0
100
AcDbLine
10
  79
20
 715
30
0.0
11
  79
21
 735
31
0.0
210
0
220
0
230
1
0
CIRCLE
100
AcDbEntity
8
0
100
AcDbCircle
10
207
20
725
30
0
40
8
210
0
220
0
230
1
0
LINE
8
0
100
AcDbLine
10
 197
20
 725
30
0.0
11
 217
21
 725
31
0.0
210
0
220
0
230
1
0
LINE
8
0
100
AcDbLine
10
 207
20
 715
30
0.0
11
 207
21
 735
31
0.0
210
0
220
0
230
1
0
CIRCLE
100
AcDbEntity
8
0
100
AcDbCircle
10
79
20
819
30
0
40
8
210
0
220
0
230
1
0
LINE
8
0
100
AcDbLine
10
  69
20
 819
30
0.0
11
  89
21
 819
31
0.0
210
0
220
0
230
1
0
LINE
8
0
100
AcDbLine
10
  79
20
 809
30
0.0
11
  79
21
 829
31
0.0
210
0
220
0
230
1
0
CIRCLE
100
AcDbEntity
8
0
100
AcDbCircle
10
205
20
819
30
0
40
8
210
0
220
0
230
1
0
LINE
8
0
100
AcDbLine
10
 195
20
 819
30
0.0
11
 215
21
 819
31
0.0
210
0
220
0
230
1
0
LINE
8
0
100
AcDbLine
10
 205
20
 809
30
0.0
11
 205
21
 829
31
0.0
210
0
220
0
230
1
0
CIRCLE
100
AcDbEntity
8
0
100
AcDbCircle
10
79
20
903
30
0
40
8
210
0
220
0
230
1
0
LINE
8
0
100
AcDbLine
10
  69
20
 903
30
0.0
11
  89
21
 903
31
0.0
210
0
220
0
230
1
0
LINE
8
0
100
AcDbLine
10
  79
20
 893
30
0.0
11
  79
21
 913
31
0.0
210
0
220
0
230
1
0
CIRCLE
100
AcDbEntity
8
0
100
AcDbCircle
10
205
20
903
30
0
40
8
210
0
220
0
230
1
0
LINE
8
0
100
AcDbLine
10
 195
20
 903
30
0.0
11
 215
21
 903
31
0.0
210
0
220
0
230
1
0
LINE
8
0
100
AcDbLine
10
 205
20
 893
30
0.0
11
 205
21
 913
31
0.0
210
0
220
0
230
1
0
CIRCLE
100
AcDbEntity
8
0
100
AcDbCircle
10
79
20
984
30
0
40
6
210
0
220
0
230
1
0
LINE
8
0
100
AcDbLine
10
  69
20
 984
30
0.0
11
  89
21
 984
31
0.0
210
0
220
0
230
1
0
LINE
8
0
100
AcDbLine
10
  79
20
 974
30
0.0
11
  79
21
 994
31
0.0
210
0
220
0
230
1
0
CIRCLE
100
AcDbEntity
8
0
100
AcDbCircle
10
204
20
984
30
0
40
6
210
0
220
0
230
1
0
LINE
8
0
100
AcDbLine
10
 194
20
 984
30
0.0
11
 214
21
 984
31
0.0
210
0
220
0
230
1
0
LINE
8
0
100
AcDbLine
10
 204
20
 974
30
0.0
11
 204
21
 994
31
0.0
210
0
220
0
230
1
0
CIRCLE
100
AcDbEntity
8
0
100
AcDbCircle
10
11
20
11
30
0
40
6
210
0
220
0
230
1
0
CIRCLE
100
AcDbEntity
8
0
100
AcDbCircle
10
1884
20
11
30
0
40
6
210
0
220
0
230
1
0
CIRCLE
100
AcDbEntity
8
0
100
AcDbCircle
10
1884
20
1043
30
0
40
6
210
0
220
0
230
1
0
CIRCLE
100
AcDbEntity
8
0
100
AcDbCircle
10
11
20
1043
30
0
40
6
210
0
220
0
230
1
0
CIRCLE
100
AcDbEntity
8
0
100
AcDbCircle
10
631
20
11
30
0
40
6
210
0
220
0
230
1
0
CIRCLE
100
AcDbEntity
8
0
100
AcDbCircle
10
1262
20
11
30
0
40
6
210
0
220
0
230
1
0
CIRCLE
100
AcDbEntity
8
0
100
AcDbCircle
10
631
20
1043
30
0
40
6
210
0
220
0
230
1
0
CIRCLE
100
AcDbEntity
8
0
100
AcDbCircle
10
1262
20
1043
30
0
40
6
210
0
220
0
230
1
0
CIRCLE
100
AcDbEntity
8
0
100
AcDbCircle
10
11
20
527
30
0
40
6
210
0
220
0
230
1
0
CIRCLE
100
AcDbEntity
8
0
100
AcDbCircle
10
1884
20
527
30
0
40
6
210
0
220
0
230
1
0
LINE
8
0
100
AcDbLine
10
   0
20
   0
30
0.0
11
1895
21
   0
31
0.0
210
0
220
0
230
1
0
LINE
8
0
100
AcDbLine
10
   0
20
1054
30
0.0
11
1895
21
1054
31
0.0
210
0
220
0
230
1
0
LINE
8
0
100
AcDbLine
10
   0
20
   0
30
0.0
11
   0
21
1054
31
0.0
210
0
220
0
230
1
0
LINE
8
0
100
AcDbLine
10
1895
20
   0
30
0.0
11
1895
21
1054
31
0.0
210
0
220
0
230
1
0
ENDSEC
0
EOF